Guitar Tabs
song title    band name

Join Us Today!

Don't strum alone...
be a part of the largest online Christian music community. Browse thousands of guitar tabs and chat w/ musicians like yourself.


It's Free!

This tab has been rated a 3.75 out of 5 for accuracy. (4 votes)Sorry, but you must be logged in to rate this tab.
Click here to log-in, or you can click here to register.
(Registration is free)

All songs owned by corresponding publishing company. If you make copies of any song on this website, be sure to report your usage to CCLI.
Submitted by: goldylox88

Only You
David Crowder Band

this is quite a bit easier than the version already written. i'll work on
finishing the whole song later on but this is just the first part of the intro.

e--------------------------------------------0--------------------------------
B-------------1-----1h3-3--------------3--------3p1p0----------------0-----0h1
G----------0-----0---------0--------0-----0------------2p0--------0-----0-----
D-----0h2------------------------0-----------------------------2--------------
A--3--------------------------2-----------------------------0-----------------
E-----------------------------------------------------------------------------

e-----0-----------------------------------------------------------------------
B--------1-------------1---------1--------------------------------------------
G--0----------------0-----0p2p0-----------------------------------------------
D--------------2h3------------------------------------------------------------
A-----------------------------------------------------------------------------
E-----------1-----------------------------------------------------------------

Comments about this tab

Minivan - 2004-06-03

This was very beautifully tabbed.


accousty45 - 2004-10-27

Hey im kinda new to this whole thing and I'm a little confused on how you tabbed this. I'm used to just reading chords off a sheet for my guitar. I'm not quite sure what you mean by things like "1h3-3 and 3p1p0". Do you think you could explain it to me because I see a lot of tabs like this and I get confused. Thanks a lot,
-Accousty


Mar-T - 2005-11-08

Alright,1h3-3 For this you hit the B-string fret 1 then quickly add another fingeron fret 3, then you hit the B-string fret 3. The h is for hammer on. Then, 3p1p0 For this you have your fingers on the 1st and 3rd frets on the B-string. Quickly let go of 3rd fret, hit and let go of 1st fret letting the open string ring out.
Hope this helps, it's hard to explain in words.
God Bless! Crowder rox!


Add a comment/correction

Complimentary Christian Ringtones
Dadamobile and CGR have teamed up to bring your favorite Christian artists right to your phone. Sign up today and get 10 complementary ringtones!
Tab Country
Did you know CGR has a sister site w/ country guitar tabs? Well we do! Its called Tab Country. It has a great archive with a lot of country tabs.
Rockin Tabs
Are you looking for a site that has rock guitar tabs? Then Rockintabs.com is the place for you. It is a budding site with many rock guitar tabs. Submit your tab today.
Tab Gallery
Tab Gallery has a compilation of christian, rock, and country tabs all in one place. Come visit us.