Guitar Tabs
song title    band name

Join Us Today!

Don't strum alone...
be a part of the largest online Christian music community. Browse thousands of guitar tabs and chat w/ musicians like yourself.


It's Free!

This tab has been rated a 4.67 out of 5 for accuracy. (9 votes)Sorry, but you must be logged in to rate this tab.
Click here to log-in, or you can click here to register.
(Registration is free)

All songs owned by corresponding publishing company. If you make copies of any song on this website, be sure to report your usage to CCLI.
Submitted by: scheller

Majesty [Here I Am]
Delirious?
Album: WORLD SERVICE
Words and Music by Martin Smith and Stuart Garrard

Transcribed by scheller  sonnyschell@hotmail.com
I've tried to tab this note for note.  This was exported from the 
powertab I've done for this song which you can get here:
http://www.powertabs.net/pta.php?page=song,10976  
or here:
http://www.christianguitar.org/forums/showthread.php?t=75732

All guitars tuned down 1/2 step (Eb Ab Db Gb Bb Eb)
Chord names reflect shape

Chorus chords: 
D  xx0232
A  x02220
Bm x24432
G5 3x0033

Intro
  Gtr I (acoustic)
    Bm            A               G             A              4x
||------------------------------|------------------------------||
||o-0---0---------0---0---------|-0---0---------0---0---------o||
||--7-------7-----6-------6-----|-4-------4-----4-------4------||
||----0-------0-----0-------0---|---0-------0-----0-------0----||
||o-----------------------------|-----------------------------o||
||--7-----7-----7\5-----5-----5\|-3-----3-----3-3-----3-----3--||


   Strings (play on 3rd and 4th repeats of intro riff)
||--------19-17-----------------------------|----------------17-------||
||o---------------------14---15-14-12-------|------------------------o||
||--16-19---------19-16----------------14---|-12---14---16------------||
||------------------------------------------|-------------------------||
||o-----------------------------------------|------------------------o||
||------------------------------------------|-------------------------||


 Verse 1
  Bm     A        G                 D6/F#               G
|---------------|-----------------|-------------------|-----------------|
|-0---0--0---0--|-0---0---0---0---|-0---0---0---0-----|-0---0---0---0---|
|-7------6------|-4-------4-------|-2-----2-2-------2-|-4-----4-4-----4-|
|---0------0----|---0---0---0---0-|---0-------0-------|---0-------0-----|
|---------------|-----------------|-------------------|-----------------|
|-7------5------|-3-------3-----3-|-2---3-2-2---2/3\2-|-3-----3-3-----3-|


  D6/F#       D     A/C#    F#/Bb     Bm      A         G
|-----------------|-----------------|-----------------|------------------|
|-0---0-------7---|-5---0---2---0---|-0---0---0---0---|-0---0---0---0----|
|-2-----2-2-0-----|-6-------3-------|-7-------6-------|-4-------4-----4--|
|---0-------------|-----------------|---0-------0-----|---0---0---0------|
|-------------5-5-|-4-4---4-1-1---1-|-----------------|------------------|
|-2---3---2-0-----|-----------------|-7-----7-5-----5-|-3-------3-----3--|


  D6/F#             G                 D6/F#       D     A/C#    F#/Bb
|-----------------|-----------------|-----------------|------------------||
|-0---0---0---0---|-0---0---0---0---|-0---0-------7---|-5---0---2---0----||
|-2-----2-2-----2-|-4-------4-----4-|-2-----2-2-0-----|-6-------3--------||
|---0-------0-----|---0---0---0-----|---0-------------|------------------||
|-----------------|-----------------|-------------5-5-|-4-4---4-1-1---1--||
|-2-----2-2-----2-|-3-------3-----3-|-2-----2-2-0-----|------------------||


 Pre-Chorus
  B5      A/C#      D                 B5      A/C#      D
|-----------------|-------2-3-2-0---|-----------------|-------2-3-2-0----|
|-----------------|-----3---------3-|-----------------|-----3---------3--|
|-----4-------2---|---2-------------|-----4-------2---|---2--------------|
|---4---4---2---2-|-0---------------|---4---4---2---2-|-0----------------|
|-2-------4-------|-----------------|-2-------4-------|------------------|
|-----------------|-----------------|-----------------|------------------|


  E/G#              G5                G5       
|-------0-2-0-----|-----------------|-----------------||
|-----0-------3-2-|-3---3---2---2---|-3---3---2---2---||
|-----------------|---0---0---0---0-|---0---0---0---0-||
|---2-------------|-----------------|-----------------||
|-----------------|-----------------|-----------------||
|-4---------------|-3-------3-------|-3-------3-------||
|
| Gtr II (clean electric)
|-----------------|-----------------|-----------------||
|-----------------|-----------------|-------------0-2-||
|-----------------|-----------------|-----------------||
|-----------------|-----------------|-----------------||
|-----------------|-----------------|-----------------||
|-----------------|-----------------|-----------------||


 Chorus 1
   [Chorus Riff]
    Gtr IV
    D                         A  
    /    /    /  / / /  /     /   /   / / // /
||--------------------------|-------------------|
||o-------------------------|-------------------|
||--11---11------11----11---|-6---6-----6---6---|
||-----0-------0----------0-|---0-----0-------0-|
||o-------------------------|-------------------|
||--10------10------10------|-5-----5-----5-----|
|
||--------------------------|-------------------|
||o--7----7-------7-------0-|-2---2-----2---0-2-|
||-----7-----7-------7--2---|---2---2-----2-----|
||--------------------------|-------------------|
||o-------------------------|-------------------|
||--------------------------|-------------------|

                          [end Chorus Riff]
                    *1st ending             *2nd ending
  Bm                  G5                     G5
  /   /   / / // /    /   /   / / // /       /   /   / / // /
|-------------------|---------------------||-------------------||
|-------------------|--------------------o||-------------------||
|-7---7-----7---7---|-4---4-----4---4-----||-4---4-----4---4---||
|---0-----0-------0-|---0-----0-------0---||---0-----0-------0-||
|-------------------|--------------------o||-------------------||
|-7-----7-----7-----|-3-----3-----3-------||-3-----3-----3-----||
|
|-------------------|---------------------||-------------------||
|-3---3-----3---2-3-|-0---0-----0---0-2--o||-0---0-----0---0---||
|---4---4-----4-----|---0---0-----0-------||---0---0-----0---0-||
|-------------------|---------------------||-------------------||
|-------------------|--------------------o||-------------------||
|-------------------|---------------------||-------------------||


 Verse 2
  Bm
  ~~~~~~~~~~~~~~~
|-----------|--------|
|-----------|--------|
|-/7--------|-(7)----|
|-----------|--------|
|-----------|--------|
|-/7--------|-(7)----|
|
| (strings)
|-----------|--------|
|-----------|--------|
|--7--------|-(7)----|
|-----------|--------|
|-----------|--------|
|--7--------|-(7)----|


  D6/F#               G                 D6/F#       D     A/C#    F#/Bb
|-------------------|-----------------|-----------------|------------------||
|-0---0-----0---0---|-0---0---0---0---|-0---0-------7---|-5---0---2---0----||
|-2------2--2-----2-|-4-------4-----4-|-2-----2-2-0-----|-6-------3--------||
|-0-0---------0-----|---0---0---0-----|---0-------------|------------------||
|-------------------|-----------------|-------------5-5-|-4-4---4-1-1---1--||
|-2---3-----2---3-2-|-3-------3-----3-|-2---3-2-2-0-----|------------------||


  Bm      A         G                 D6/F#                 G
|-----------------|-----------------|---------------------|------------------|
|-0---0---0---0---|-0---0---0---0---|-0---0-----0---0-----|-0---0---0---0----|
|-7-------6-------|-4-------4-----4-|-2-------2-2-------2-|-4-------4-----4--|
|---0-------0-----|---0---0---0-----|---0---------0-------|---0---0---0------|
|-----------------|-----------------|---------------------|------------------|
|-7-----7-5-----5-|-3-------3-----3-|-2---2/3\2-2---2/3\2-|-3-------3-----3--|


  D6/F#         D     A/C#    F#/Bb
|-------------------|-----------------||
|-0---0---------7---|-5---0---2---0---||
|-2-------2-2-0-----|-6-------3-------||
|---0---------------|-----------------||
|---------------5-5-|-4-4---4-1-1---1-||
|-2---2/3\2-2-0-----|-----------------||


REPEAT Pre-Chorus Riff

Chorus 2
 Gtr I plays Chorus Riff 4x
 Gtr II plays 
     D                        A
||--------------------------|---------------0-2-|
||o--7----7-------7-----7-8-|-2---2-----2-------|
||-----7-----7-------7------|---2---2-----2-----|
||--------------------------|-------------------|
||o-------------------------|-------------------|
||--------------------------|-------------------|

                     *1st,2nd,3rd endings
  Bm                  G                   4x
|-------------------|---------------------||
|-3---3-----3---2-3-|-0---0-----0---0-2--o||
|---4---4-----4-----|---0---0-----0-------||
|-------------------|---------------------||
|-------------------|--------------------o||
|-------------------|---------------------||


                       Bridge
 *4th ending                              *1st-3rd    *4th ending
  G                     Bm       A
|-------------------||-------------------|-----------||---------------||
|-------------------||o------------------|----------o||---------------||
|-4---4-----4---4---||---7-------6-------|--4--------||--4------------||
|---0-----0-------0-||-------------------|-----------||---------------||
|-------------------||o------------------|----------o||---------------||
|-3-----3-----3-----||---7-------5-------|--3--------||--3------------||
|                      
|-------------------||-------------------|-----------||---------------||
|-0---0-----0---0---||o------------------|----------o||---------------||
|---0---0-----0---0-||-------------------|-----------||-----------2/--||
|-------------------||-------------------|-----------||---------------||
|-------------------||o------------------|----------o||---------------||
|-------------------||-------------------|-----------||---------------||


 Out-Chorus
  Gtr I plays Chorus Riff 4x (ends on G)
  Gtr II 
   D                           A
|---------------------------|--2-----2-------2----------|
|--7-----7-------7--------0-|-----3-----3-------3--0--2-|
|-----7-----7-------7--2----|---------------------------|
|---------------------------|---------------------------|
|---------------------------|---------------------------|
|---------------------------|---------------------------|
|
| Gtr IV
|-14----14------14----14----|-14----14------14----14----|
|----15----15------15----15-|----15----15------15----15-|
|---------------------------|---------------------------|
|---------------------------|---------------------------|
|---------------------------|---------------------------|
|---------------------------|---------------------------|


  Bm                          G
|--2-----2-------2----------|-----------------------------|
|-----3-----3-------3--2--3-|--0-----0-------0-----0--2---|
|---------------------------|-----0-----0-------0---------|
|---------------------------|-----------------------------|
|---------------------------|-----------------------------|
|---------------------------|-----------------------------|
|
|-14----14------14----------|-14----14------15-14-12------|
|----15----15------15-14-15-|----15----15------------15---|
|---------------------------|-----------------------------|
|---------------------------|-----------------------------|
|---------------------------|-----------------------------|
|---------------------------|-----------------------------|


  D                           A
|---------------------------|--2-----2-------2----------|
|--7-----7-------7--------0-|-----3-----3-------3--0--2-|
|-----7-----7-------7--2----|---------------------------|
|---------------------------|---------------------------|
|---------------------------|---------------------------|
|---------------------------|---------------------------|
|
|-14----14------14----14----|-14----14------12-14-12-14-|
|----15----15------15----15-|----15----15---------------|
|---------------------------|---------------------------|
|---------------------------|---------------------------|
|---------------------------|---------------------------|
|---------------------------|---------------------------|


  Bm                          G
|--2-----2-------2----------|-----------------------------|
|-----3-----3-------3--2--3-|--0-----0-------0-----0--2---|
|---------------------------|-----0-----0-------0---------|
|---------------------------|-----------------------------|
|---------------------------|-----------------------------|
|---------------------------|-----------------------------|
|
|-14----14------14----------|-14----14------15-14-12------|
|----15----15------15-14-15-|----15----15------------15---|
|---------------------------|-----------------------------|
|---------------------------|-----------------------------|
|---------------------------|-----------------------------|
|---------------------------|-----------------------------|


  D                           A
|--2-----2-------2----------|----------------------0--2-|
|-----3-----3-------3-----0-|--2-----2-------2----------|
|----------------------2----|-----2-----2-------2-------|
|---------------------------|---------------------------|
|---------------------------|---------------------------|
|---------------------------|---------------------------|
|
|-14----14------14----14----|-14----14------14----12-14-|
|----15----15------15----15-|----15----15------15-------|
|---------------------------|---------------------------|
|---------------------------|---------------------------|
|---------------------------|---------------------------|
|---------------------------|---------------------------|


  Bm                          G
|--------2-------2----------|-----------------------------|
|--3--------3-------3--2--3-|--0-----0-------------2--3---|
|-----4---------------------|-----0-----0----2--4---------|
|---------------------------|-----------------------------|
|---------------------------|-----------------------------|
|---------------------------|-----------------------------|
|
|-14----14------14----------|-14----14------15-14-12------|
|----15----15------15-14-15-|----15----15------------15---|
|---------------------------|-----------------------------|
|---------------------------|-----------------------------|
|---------------------------|-----------------------------|
|---------------------------|-----------------------------|


  D                           A
|--2-----2-------2-----2--3-|---------------------------|
|-----3-----3-------3-------|--2-----2-------2-----2----|
|---------------------------|-----2-----2-------2-----2-|
|---------------------------|---------------------------|
|---------------------------|---------------------------|
|---------------------------|---------------------------|
|
|-14----14------14----14----|-14----14------12----12----|
|----15----15------15----15-|----15----15------15----15-|
|---------------------------|---------------------------|
|---------------------------|---------------------------|
|---------------------------|---------------------------|
|---------------------------|---------------------------|


  Bm                          G
|--2-----2-------2----------|-----------|-------------|---------*|
|-----3-----3-------3--2--3-|--0--------|--(0)--------|--(0)----*|
|---------------------------|-----------|-------------|---------*|
|---------------------------|-----------|-------------|---------*|
|---------------------------|-----------|-------------|---------*|
|---------------------------|-----------|-------------|---------*|
|
|-14----14------14----------|-----------|-------------|---------*|
|----15----15------15-14-15-|-12--------|-(12)--------|-(12)----*|
|---------------------------|-----------|-------------|---------*|
|---------------------------|-----------|-------------|---------*|
|---------------------------|-----------|-------------|---------*|
|---------------------------|-----------|-------------|---------*|

Generated using Power Tab Editor by Brad Larsen

Comments about this tab

coach1r - 2004-05-22

The intro and first part of verse is played with very light finger-play
on the guitar, where A (G string in 2nd) is used as a "theme" note
through
the whole thing. The Esus4 and C6 is the Em and C versions using the A.
I have used Em and C because this is better whith the melody when
playing
more full chords.


Am Em Esus4 F G6 G6+9 C C6
E|---O-----O-----O-----1-----O-----3-----O-----O---|
B|---1-----O-----O-----1-----O-----3-----1-----1---|
G|---2-----O-----2-----2-----2-----2-----O-----2---|
D|---2-----2-----2-----3-----O-----O-----2-----2---|
A|---O-----2-----2-----3-----2-----2-----3-----3---|
E|---X-----O-----O-----1-----3-----3-----X-----X---|

Intro:
Am Esus4 F 4

Verse:
Am Esus4 F Em F
Here I am ...
Em G6
Covered by ...
Am Esus4 F Em F
Here I am...
Em G6
Covered by ...
Am Em C Am Em C
Now I've found ...
C6 G6
Since you ...
Em F
The greatest ...


Chorus:
C G6 Am F
Majesty ...
C G6
Your grace ...
Am F
Empty handed ...
C G6 Am F
Majesty ...
C G6
Forever I am ...
Am F
In the precense ...


Verse:
Am Esus4 F Em F
Here I am ...
Em G6
Forgiven ...
Am Esus4 F Em F
Here I stand ...
Em G6
Sanctified ...

Am Em C Am Em C
Now I've found ...
C6 G6
Since you ...
Em F
The greatest ...


scheller - 2004-05-24

I meant to note that I tabbed this from the free mp3 from www.delirous.co.uk and not from the actual album version. There are some differences, but the main difference in the one I tabbed is that it has more guitar parts.


d:freak - 2004-12-26

hey dude great tab thanks! oh ya i was watchin the new hillsong+delirious dvd and when they played this song martin had a capo on the first fret. i dont know what that means doh!


paradigm - 2005-02-20

You can play it tuned down or with a capo in the key of Am. Same, same.


GiBBo - 2005-12-27

does anyone know the solo tab for this? i saw delirious at sheperds bush and he was playing a solo on his acoustic all on the b string- looked easy but im not great at working these things out.


timhsu87 - 2006-04-29

This is what I think is the intro that I heard on the cd
(this is a simpler version of andybrown's):

chords:
Am-x02210
G2-3x0203
F-133211

CAPO I

E--------------------------------------------------------------------------
B--1-----1---------------------------------------------------------------------
G------2---------------------------------------------------------------------
D---------------------------------------------------------------------------
A-----0----------------------------------------------------------------------
E----------------------------------------------------------------------------

Hope this helps!

To His Glory


timhsu87 - 2006-04-29

This is what I think is the intro that I heard on the cd
(this is a simpler version of andybrown's):

chords:
Am-x02210
G2-3x0203
F-133211

CAPO I

E-----------------------|-----------------------
B--1-----1----0-----0---|-----------------------
G------2----------2-----|--2---2-2----2---2-2---
D-----------------------|-----------------------
A-----0-----------------|-----------------------
E---------------3-------|----1----------1-------
Am G2 F

Hope this helps!

To His Glory


Jesus77 - 2006-10-18

What does the symbol "o" represent on the A and G string represent on the intro?


5isakoolnumber - 2007-03-13

it means zero as in open string just pluck it with no fingers on the string
hope that helps u person!
God bless!


5isakoolnumber - 2007-03-13

oh yeah person
dont forget the capo!


onlyforhim - 2011-09-15

Does anyone know what the picking pattern would be if it was played in Am, instead of Bm ???


Add a comment/correction

Complimentary Christian Ringtones
Dadamobile and CGR have teamed up to bring your favorite Christian artists right to your phone. Sign up today and get 10 complementary ringtones!
Tab Country
Did you know CGR has a sister site w/ country guitar tabs? Well we do! Its called Tab Country. It has a great archive with a lot of country tabs.
Rockin Tabs
Are you looking for a site that has rock guitar tabs? Then Rockintabs.com is the place for you. It is a budding site with many rock guitar tabs. Submit your tab today.
Tab Gallery
Tab Gallery has a compilation of christian, rock, and country tabs all in one place. Come visit us.