Guitar Tabs
song title    band name

Join Us Today!

Don't strum alone...
be a part of the largest online Christian music community. Browse thousands of guitar tabs and chat w/ musicians like yourself.


It's Free!

This tab has been rated a 5.00 out of 5 for accuracy. (1 vote)Sorry, but you must be logged in to rate this tab.
Click here to log-in, or you can click here to register.
(Registration is free)

All songs owned by corresponding publishing company. If you make copies of any song on this website, be sure to report your usage to CCLI.
Submitted by: josh-rock

Artist ~ BarlowGirl
Song ~ Pedestal
CD ~ BarlowGirl
2004 fervent records
tabbed By ~ josh-rock
tuning ~ standard
 ~ = let ring
 ^ = muffle

Verses ~ [Muffle at the arrows]
 D|-9-9-9x9-7---12-12-12x12-11---9-9-9x9-7--4~-5~-6~-7~--
 A|-9-9-9x9-7---12-12-12x12-11---9-9-9x9-7--4~-5~-6~-7~-- X2
 E|-7-7-7x7-5---10-10-10x10-9----7-7-7x7-5--2~-3~-4~-5~--
             ^                ^           ^   

Chorus ~ [listen to CD for rhythm]
 G|-1--------------------------------------
 D|-2--------9---------6----------7-------- repeat
 A|-2--------9---------6----------7--------
 E|-0--------7---------4----------5--------

 Bridge ~
guitar 1 (vibrato)
A|--4------9-----11-------12----- repeat
guitar 2 (distortion)
B|-77--77--77--77-- --99-99-99-99-12~--

End song with ~
D|-9-9-9-x-9-7---
A|-9-9-9-x-9-7---
E|-7-7-7-x-7-5---

thats about it... just repeat as needed :) josh-rock
( muskie_84@hotmail.com )

Comments about this tab

greentwitch - 2005-04-01

i think the verse starts like this instead...

9-9-9-9-9/7
9-9-9-9-9/7
7-7-7-7-7/4


aero! - 2005-06-26

i think next time you should use the standard chart for tabbing:
e------------------------------------------------------------------------------|
B------------------------------------------------------------------------------|
G------------------------------------------------------------------------------|
D------------------------------------------------------------------------------|
A------------------------------------------------------------------------------|
E------------------------------------------------------------------------------|

It's A LOT easier to read like this.


Add a comment/correction

Complimentary Christian Ringtones
Dadamobile and CGR have teamed up to bring your favorite Christian artists right to your phone. Sign up today and get 10 complementary ringtones!
Tab Country
Did you know CGR has a sister site w/ country guitar tabs? Well we do! Its called Tab Country. It has a great archive with a lot of country tabs.
Rockin Tabs
Are you looking for a site that has rock guitar tabs? Then Rockintabs.com is the place for you. It is a budding site with many rock guitar tabs. Submit your tab today.
Tab Gallery
Tab Gallery has a compilation of christian, rock, and country tabs all in one place. Come visit us.