Guitar Tabs
song title    band name

Join Us Today!

Don't strum alone...
be a part of the largest online Christian music community. Browse thousands of guitar tabs and chat w/ musicians like yourself.


It's Free!

This tab has been rated a 1.50 out of 5 for accuracy. (4 votes)Sorry, but you must be logged in to rate this tab.
Click here to log-in, or you can click here to register.
(Registration is free)

All songs owned by corresponding publishing company. If you make copies of any song on this website, be sure to report your usage to CCLI.
Submitted by: alfcantor

Random fact: Written by Korey Cooper from Skillet       

Verse:
G    Em    C   D
G    Em    C   D


Prechorus:
Em      D
Em      C
Em      D
Em  	C

Chorus:
G           C             D
Em          C-D
G           C             D
Em          C-D
G   	    C	          D
Em          C-D
G

Verse 2:
G    Em    C   D
G    Em    C   D

Pre-chorus (shortened--just first two lines)
Em      D
Em      C

Bridge:
G	D	Em	             C
G	D       Em	             C
G	      C
G	      C
G	      C	
G	      C	
G	C	D

End:
G C D

Comments about this tab

camedman47 - 2004-05-13

O man this rocks ive been waiting so long for this tab but i was hoping it would be like the picking part at the beginning so if someone would do that too it would be cool.this is nice though.


B-rad - 2004-05-17

NOOOOOOOOOOOOOOOOOOOOOOOOOOOOOOOOOOOOOOOOOOOOOOOOOOOOOOOOOOOOOOOOOOOOOOOOOOOOOOOOOOOOOOOOOOOOOOOOOOOOOOOOO!
dude, this song is way off, yes of course it's in G but the Pre-chorus is C D E and the Em in the chorus, well there is none! It's actually an A. If anyone wants the real tab e-mail me!


camedman47 - 2004-05-17

b-rad i would email you but i dont know your email address so you should give it to me so i can get the song.


B-rad - 2004-05-19

The absolute 100% correct tab! For all to view!
Artist: Jonah33
Album: Jonah33
Song: GOD of My Life
Words by: Korey Cooper
Music by: Vince Lichlyter

Here is another great song by Jonah33 and the cool intro in the G scale.
Intro and Verse:
G C D
G------0------------------------------------------0----------0h2-2-2-2/4----------0------------------0---------
D----------4------2---0----0----------------------4------------------------------2-----2-----------4------4-----
A-------------------------------------2b----------------------------------------3----------------3/5---------------
E--3----------3----------3------3----------3---------3--------------------------------------------------------------

Pre-Chorus:
C D E
G---5-5-5-5-5-5-5-5---7-7-7-7-7-9-9-9
D---5-5-5-5-5-5-5-5---7-7-7-7-7-9-9-9
A---3-3-3-3-3-3-3-3---5-5-5-5-5-7-7-7
E----------------------------------------------------

Chorus:

Chords are just:
G C D A (C D)

Bridge: A G F G A then do this on A--0h2--2--2--0h2--2--2


B-rad - 2004-05-19

whoops here's the intro and verse
G C D
G-----0------------------------------------------0---------0h2-2-2-2/4----------0---------------0-------
D---------4-----2---0----0----------------------4------------------------------2-----2---------4-----4---
A-------------------------------------2b--------------------------------------3--------------3/5-------------
E--3---------3---------3------3----------3---------3--------------------------------------------------------


B-rad - 2004-05-19

It didn't work!


ryandunn7 - 2004-06-10

www.freewebs.com/jonah33


BranOhMac - 2004-07-05

I think the A should be an Am


Freespirit - 2004-08-14

Well you guys... I'm totally lost in what to play... SOMEBODY PLEASE straighten this out!


pillarock3 - 2004-08-17

this is b-rad's tabstraightened out
G-----0------------------------------------------0---------0h2-2-2-2/4
D---------4-----2---0----0----------------------4---------------------
A-------------------------------------2b------------------------------
E--3---------3---------3------3----------3---------3------------------

G----------0---------------0-------
D---------2-----2---------4-----4--
A--------3--------------3/5--------
E----------------------------------


pillarock3 - 2004-08-17

this is b-rad's tabstraightened out
G-----0------------------------------------------0---------0h2-2-2-2/4
D---------4-----2---0----0----------------------4---------------------
A-------------------------------------2b------------------------------
E--3---------3---------3------3----------3---------3------------------

G----------0---------------0-------
D---------2-----2---------4-----4--
A--------3--------------3/5--------
E----------------------------------


ryandunn7 - 2004-09-24

hey guys ill put up the rejected tabs on my website if u send them to me
just chek out the site www.jonah33.tk, and send them to admin@jonah33.tk.
peace


goldennight3 - 2004-10-08

I would like to know what you play on the "I will seek you till I find you" part.


camedman47 - 2004-10-20

hey bradleyk, i submitted a different God of My Life song cause the intro and verse were a little off so you should put that on here too cause im pretty darn sure its right


mondaymrningfan - 2004-11-18

I really think the chords for the chorus are

G C D Am*Am*Am*Am* Am*Am*Am*Am* C D

Yeah I'm very sure that is right. The Em sounds horrible after playing this but you have to play the Am's fast. Just listen to the cd and it will sound right.


tree44 - 2005-02-12

I'm pretty sure the magic chord in the chorus is actually an Am7
G C D Am7Am7Am7Am7 Am7Am7Am7Am7 C D


Add a comment/correction

Complimentary Christian Ringtones
Dadamobile and CGR have teamed up to bring your favorite Christian artists right to your phone. Sign up today and get 10 complementary ringtones!
Tab Country
Did you know CGR has a sister site w/ country guitar tabs? Well we do! Its called Tab Country. It has a great archive with a lot of country tabs.
Rockin Tabs
Are you looking for a site that has rock guitar tabs? Then Rockintabs.com is the place for you. It is a budding site with many rock guitar tabs. Submit your tab today.
Tab Gallery
Tab Gallery has a compilation of christian, rock, and country tabs all in one place. Come visit us.