Guitar Tabs
song title    band name

Join Us Today!

Don't strum alone...
be a part of the largest online Christian music community. Browse thousands of guitar tabs and chat w/ musicians like yourself.


It's Free!

This tab has been rated a 4.44 out of 5 for accuracy. (9 votes)Sorry, but you must be logged in to rate this tab.
Click here to log-in, or you can click here to register.
(Registration is free)

All songs owned by corresponding publishing company. If you make copies of any song on this website, be sure to report your usage to CCLI.
Submitted by: Adam K

Third Day-Come On Back To Me
Standard Tuning EADGBE
 2004 Essential Records

Intro
G# B E C# x4

Verse
G# B C# x3
E F#
(repeat verse)

Chorus
E B F# G#m7
E B F#
E B F# G#m7
E B F#

Post-Chorus
E B F# x2
G# B E C#

Verse 2
G# B C# x3
E F#

Chorus

Post-Chorus 2
E B F# x4

Bridge
A E B x2
D A E
D A F#

Chorus

Ending
E B F# x8

Comments about this tab

sixstringes777 - 2004-11-04

Actually The Song Is All Power Chords!!!
The way you show isnt how Third Day plays it but its pretty good.

This is the beging. It also shows up during the song.

------------------------------------------------------
-----7------------------------------------------------
--8--8------------------------------------------------
--6--9--9--11-----------------------------------------
--------7--8------------------------------------------
------------------------------------------------------

The strum pattern is Down Down, Up Down Down, Up Down Down, Up Down Down

The chourus goes

------------------------------------------------------
------------------------------------------------------
------------------------------------------------------
-----4-------------4----------------------------------
--2--2--4--6----2--2--4--4----------------------------
--0-----2--4----0-----2--2----------------------------

The strum pattern for this part you have to figure out on your own

During the verse there is a ulternate picking pattern. Its played pretty fast.

----------------------------------------------------------------------------
----------------------------------------------------------------------------
----------8------------------6----------------------------------------------
--6-6-6-6---6-6-6----4-4-4-4---4-4-4------------6-------------------6-------
----------------------------------------4-4-4-4---4-4-4-----4-4-4-4---4-4-4-
----------------------------------------------------------------------------



Sydney13 - 2004-12-28

This sounds great i will still have to learn how to do it properly
thanks


rock4christ08 - 2005-01-18

i go with the sixstrings dude on the situation here. it actually does sound better with the power chords. aconcernedcitizen - ray


teens4God7 - 2005-05-18

Yea, i agree good job commenter lol


rockstarwannabe - 2005-12-09

Hey guys (and girls) the chord progression (I'm not sure why) is wrong. I actually used this tab (and it sounds good) but later went and bought the book by Hal-Leonard. The chord progression that they give is:
A5, C, F5, D/F# and repeat (it's the intro)
Verse would be:
Am, Am/G, D7
Am, C, D7
And the chorus:
F, C, G, Am
F, C, G
And not to spoil y'alls fun I'm gonna leave you there!(Actually I'm just in a hurry!)


chattindood - 2008-02-08

that book is in a diff key this progression is right on
listen to the wire cd this is exact


Add a comment/correction

Complimentary Christian Ringtones
Dadamobile and CGR have teamed up to bring your favorite Christian artists right to your phone. Sign up today and get 10 complementary ringtones!
Tab Country
Did you know CGR has a sister site w/ country guitar tabs? Well we do! Its called Tab Country. It has a great archive with a lot of country tabs.
Rockin Tabs
Are you looking for a site that has rock guitar tabs? Then Rockintabs.com is the place for you. It is a budding site with many rock guitar tabs. Submit your tab today.
Tab Gallery
Tab Gallery has a compilation of christian, rock, and country tabs all in one place. Come visit us.