Guitar Tabs
song title    band name

Join Us Today!

Don't strum alone...
be a part of the largest online Christian music community. Browse thousands of guitar tabs and chat w/ musicians like yourself.


It's Free!

This tab has been rated a 4.57 out of 5 for accuracy. (7 votes)Sorry, but you must be logged in to rate this tab.
Click here to log-in, or you can click here to register.
(Registration is free)

All songs owned by corresponding publishing company. If you make copies of any song on this website, be sure to report your usage to CCLI.
Submitted by: josh-rock

Artist ~ BarlowGirl
Album ~ BarlowGirl
Song ~ On My Own
2004 fervent records
tabbed by ~ josh-rock
Tuning ~ standard

 ~ = let ring
 * = palm mute
Intro ~ 
        g|-1-1-1-1-1-1---------------6-6-6-6-6-6--4~--4~------
Guitar1 d|-2-2-2-2-2-2--7-7-7-7-7-7--6-6-6-6-6-6--4~--4~------ x4
        a|-2-2-2-2-2-2--7-7-7-7-7-7--4-4-4-4-4-4--2~--2~------
        e|-0-0-0-0-0-0--5-5-5-5-5-5---------------------------
           * * * * * *  * * * * * *  * * * * * *  
 2nd 1/2 of intro ~
        e|-4-4-4-4-4-4--5-5-5-5-5-5--7-7-7-7-7-7--9-9-9-9-9-9--
        b|-----------------------------------------------------
Guitar2 g|-----------------------------------------------------
        d|-----------------------------------------------------
        a|-----------------------------------------------------
        e|-----------------------------------------------------

  Verses ~
    g|-1-1-1-1~------------6-6-6-6~--4-4-4------
    d|-2-2-2-2~--7-7-7-7~--6-6-6-6~--4-4-4------
    a|-2-2-2-2~--7-7-7-7~--4-4-4-4~--2-2-2------
    e|-0-0-0-0~--5-5-5-5~-----------------------
       * * *     * * *     * * *     * * *       X2
    g|-1-x-1-------------------4-4-4-4----------
    d|-2-x-2---6-x-6---7-x-7---4-4-4-4----------
    a|-2-x-2---6-x-6---7-x-7---2-2-2-2----------
    e|-0-x-0---4-x-4---5-x-5--------------------

Pre Chorus~ "I promised myself"

   g|-6-6-6--------------------4-4-4----------
   d|-6-6-6--6-x-6--7-7-7-7-7--4-4-4----------
   a|-4-4-4--6-x-6--7-7-7-7-7--2-2-2---------- X2
   e|--------4-x-4--5-5-5-5-5-----------------
                    * * * * * 
Chorus ~ Basicly same as verses

Bridge ~ No guitar

Outro ~ same as Intro

there ya go! Hope you like it... I think its pretty complete! josh-rock
Lyrics ~ http://www.barlowgirl.com/discography/lyrics/default.asp?songID=12

Comments about this tab

Alfredrole50 - 2004-11-21

The intro should be like this
g|---------------------------6-6-6-6-6-6--4~--4~------
d|-2-2-2-2-2-2--7-7-7-7-7-7--6-6-6-6-6-6--4~--4~------ x4
a|-2-2-2-2-2-2--7-7-7-7-7-7--4-4-4-4-4-4--2~--2~------
e|-0-0-0-0-0-0--5-5-5-5-5-5---------------------------


lover - 2004-11-21

Hey can anybody put on the Piano part or the gutair chords? Because I want to learn it really bad!


Steffenlaursen - 2004-12-05

Intro is E5 A5 C#5 B5

Verse is the same for the two first lines, then E5 G#5 A5 B5

Prechorus, C#5 G#5 A5 B5

but for piano you probably just play regular major chords...


jp4jesus - 2005-01-06

You can also use g-2-2-2-2-2-2---7-7-7-7-7-7---11-11-11-11---9-9---9-9
a-2-2-2-2-2-2---7-7-7-7-7-7---11-11-11-11---7-7---7-7
e-0-0-0-0-0-0---5-5-5-5-5-5---9--9--9--9----7-7---7-7


jp4jesus - 2005-06-22

You can also use

g-2-2-2-2-2-2---7-7-7-7-7-7---11-11-11-11---9-9---9-9
a-2-2-2-2-2-2---7-7-7-7-7-7---11-11-11-11---7-7---7-7
e-0-0-0-0-0-0---5-5-5-5-5-5---9--9--9--9----7-7---7-7


ncm*fan - 2006-02-26

ok i'm a new guitar player and i don't understand the whole tabs thing like how to play it....would sombody please explain that to me?


Add a comment/correction

Complimentary Christian Ringtones
Dadamobile and CGR have teamed up to bring your favorite Christian artists right to your phone. Sign up today and get 10 complementary ringtones!
Tab Country
Did you know CGR has a sister site w/ country guitar tabs? Well we do! Its called Tab Country. It has a great archive with a lot of country tabs.
Rockin Tabs
Are you looking for a site that has rock guitar tabs? Then Rockintabs.com is the place for you. It is a budding site with many rock guitar tabs. Submit your tab today.
Tab Gallery
Tab Gallery has a compilation of christian, rock, and country tabs all in one place. Come visit us.