Guitar Tabs
song title    band name

Join Us Today!

Don't strum alone...
be a part of the largest online Christian music community. Browse thousands of guitar tabs and chat w/ musicians like yourself.


It's Free!

This tab has been rated a 2.67 out of 5 for accuracy. (3 votes)Sorry, but you must be logged in to rate this tab.
Click here to log-in, or you can click here to register.
(Registration is free)

All songs owned by corresponding publishing company. If you make copies of any song on this website, be sure to report your usage to CCLI.
Submitted by: antifire03

Band: Demon Hunter
Song: My Heartstring Comes Undone
Album: Summer of Darkness
Label: Solid State Records

Hey, i just got the cd, and i wanted to post what i have so far to get
people started on the new songs. I have this and "Not Ready to Die" started.
I need help though. here's what i got for this song

tuning: CGCFAD
intro:
D:------11---------11----------9---------9--------6---------6--
A:--7----------7-----------7---------7--------6---------6------
F:8---8------8---8-------6---6-----6---6----6---6-----6---6----

I can't find the last part of this. I'll post it later

verse intro
C:0000
G:0000
C:0000

verse: guitar 2
F:------11--------11--------9-------9--------6-------6--
C:--7---------7---------7-------7--------6-------6------
g:9---9-----9---9-----7---7---7---7----7---7---7---7----

Prechorus:
C:55556663-333-333-55556668-888-888
G:55556663-333-333-55556668-888-888
C:55556663-333-333-55556668-888-888

sorry. that's all i've got right now. ne one wanna help me with the rest? 
antifire03@yahoo.com

Comments about this tab

Siwelb - 2004-05-29

A little correction to the tab:

D|--------7-----------7-----------6---------6----------6----------6--
A|---7-----------7-----------7----------7----------6----------6------
F|-8---8-------8---8-------6---6------6---6------6---6------6---6----

D|--------2----------2--||
A|---4----------4-------||
F|-3---3------3---3-----||


Jahwarriorse - 2004-07-22

Correction to the correction :) :

The last line should be

3 3
5 5
2 2 2 2


Jahwarriorse - 2004-07-22

D|-----------3--------------------3----------|
A|----5-------------------5------------------|
F|-2-----2------------2--------2-------------|


Add a comment/correction

Complimentary Christian Ringtones
Dadamobile and CGR have teamed up to bring your favorite Christian artists right to your phone. Sign up today and get 10 complementary ringtones!
Tab Country
Did you know CGR has a sister site w/ country guitar tabs? Well we do! Its called Tab Country. It has a great archive with a lot of country tabs.
Rockin Tabs
Are you looking for a site that has rock guitar tabs? Then Rockintabs.com is the place for you. It is a budding site with many rock guitar tabs. Submit your tab today.
Tab Gallery
Tab Gallery has a compilation of christian, rock, and country tabs all in one place. Come visit us.