Guitar Tabs
song title    band name

Join Us Today!

Don't strum alone...
be a part of the largest online Christian music community. Browse thousands of guitar tabs and chat w/ musicians like yourself.


It's Free!

This tab has been rated a 4.00 out of 5 for accuracy. (1 vote)Sorry, but you must be logged in to rate this tab.
Click here to log-in, or you can click here to register.
(Registration is free)

All songs owned by corresponding publishing company. If you make copies of any song on this website, be sure to report your usage to CCLI.
Submitted by: boughtredhanded

Verse:
F# C#
B F#
F# C#
B                    

Chorus:
F# C#
D#m C# B
(repeat)

Bridge:
F# C#
D#m C# B
(Repeat)
------------------------------------------------------------

I looked for the solo to Give us Clean Hands, and I couldn't find it anywhere,
so I decided to break it down for myself. It didn't take long, and it's really
easy to play.
Just come in after a four-count after the line "Oh, God of Jacob..."
This may not be perfect, but it's pretty darn close. It'll give you a
great starting point, and you can make adjustments for yourself.
Jesus is awesome, and I'm so glad he loves the rock-n-roll that we play for Him!
Have a great day!

E ----------------------------------------------------
B ---9-9-9--------99--------99------------------------
G --8-8-8-8---888---8---888---8---888---8h10p8--------
D ----------------------------------------------------
A ----------------------------------------------------
E ----------------------------------------------------


E -----------------------------------------8--11--8---
B -------------------------------------9h11--------11-
G ------------------------------------8---------------
D --888h10---888h10--p8/6h8p6---6h8h10----------------
A ----------------------------------------------------
E ----------------------------------------------------

Comments about this tab

litaichi - 2005-08-26

Everything is right except it needs to be one step up =) Good job!!!


litaichi - 2005-09-16

Here is your answer!

http://www.charliehall.com/pdf/giveus%20clean%20hands.pdf


Add a comment/correction

Complimentary Christian Ringtones
Dadamobile and CGR have teamed up to bring your favorite Christian artists right to your phone. Sign up today and get 10 complementary ringtones!
Tab Country
Did you know CGR has a sister site w/ country guitar tabs? Well we do! Its called Tab Country. It has a great archive with a lot of country tabs.
Rockin Tabs
Are you looking for a site that has rock guitar tabs? Then Rockintabs.com is the place for you. It is a budding site with many rock guitar tabs. Submit your tab today.
Tab Gallery
Tab Gallery has a compilation of christian, rock, and country tabs all in one place. Come visit us.