Guitar Tabs
song title    band name

Join Us Today!

Don't strum alone...
be a part of the largest online Christian music community. Browse thousands of guitar tabs and chat w/ musicians like yourself.


It's Free!

This tab has been rated a 4.67 out of 5 for accuracy. (3 votes)Sorry, but you must be logged in to rate this tab.
Click here to log-in, or you can click here to register.
(Registration is free)

All songs owned by corresponding publishing company. If you make copies of any song on this website, be sure to report your usage to CCLI.
Submitted by: Haysooslovesu

Tabbed by:Mr. Smith
Email:GSusfreak4real@aol.com

Tuning: Drop C, C-G-C-F-A-D 

Part 1
|-----------------------------------------------------------------
|-----------------------------------------------------------------
|-------------------------------------3/5-3-2-3-2h3p2-------------
|---3-2-0-5-3-2--------3-2-0--5-3-2--------------------5-3-2-3----
|-----------------------------------------------------------------
|-0--------------0--0---------------------------------------------



|---------------------------------------------------------------------
|---------------------------------------------------------------------
|----------------------------------------2-3-0-2---5-3-2-0-2----------
|-----3-2-0-5-3-2-------3-2-0-5-3-2--0-3---------3-----------3-5-2-3--
|---------------------------------------------------------------------
|-0----------------0--0-----------------------------------------------  

        (repeat these two twice)

|------------------------------------------------------------------
|------------------------------------------------------------------
|-----2-3-0-2-------------------------2-3-0-2---5-3-2-3-2-0-2------
|-0-3---------3-0--0-000-000-000--0-3---------3--------------------
|---------------0--0-000-000-000-----------------------------------
|---------------0--0-000-000-000-----------------------------------

              (repeat this four times)
Part 2
|-----------------------------------------------------------------------------
|-----------------------------------------------------------------------------
|-----------------------------------5-3-2----------------------------3-5------
|-----3---5-3-2-3-2-0-----3---5-3-2-----------3---5-3-2-3-2-0------3-3-3------
|-5-5---3-------------5-5---1-------------5-5---3--------------5-5---1-3------
|-----------------------------------------------------------------------------

            (repeat twice)

|------------------------------------------------------------------------
|------------------------------------------------------------------------
|-333333333333---------------333333333333---------55555------------------
|-333333333333--0-0-0-0-0-0--333333333333--0-0-0--55555------------------
|-111111111111--0-0-0-0-0-0--111111111111--0-0-0--33333------------------
|---------------0-0-0-0-0-0----------------0-0-0-------------------------

Then guitar two plays:


|------------------------------------------------------------------------
|------------------------------------------------------------------------
|-1010101010101010-9999-7777--7-9-7-5-7----------------------------------
|-x-x-x-x-x-x-x-x--xxxx-xxxx--x-x-x-x-x----------------------------------
|-8-8-8-8-8-8-8-8--7777-5555--5-7-5-3-5----------------------------------
|------------------------------------------------------------------------




|------------------------------------------------------------------------
|------------------------------------------------------------------------
|-1010101010101010-9999-10101010--12121212--12-10-9-10-------------------
|-x-x-x-x-x-x-x-x--xxxx-x-x-x-x---x-x-x-x---x--x--x-x--------------------
|-8-8-8-8-8-8-8-8--7777-8-8-8-8---10101010--10-8--7-8--------------------
|------------------------------------------------------------------------


Repeat part 1, then


|------------------------------------------------------------------------
|------------------------------------------------------------------------
|--2-2-------------------------------------------------------------------
|--2-2-3--0x0x0x-0x-0x--0x0x0x-0x0x0x-0x0x-0x-0x-0x0x0x-0x0x0x-----------
|--0-0-3--0x0x0x-0x-0x--0x0x0x-0x0x0x-0x0x-0x-0x-0x0x0x-0x0x0x-----------
|------3--0x0x0x-0x-0x--0x0x0x-0x0x0x-0x0x-0x-0x-0x0x0x-0x0x0x-----------

          (repeat four times, and on second, guitar two does this)


|-------------------------------------------------------------------------
|-------------------------------------------------------------------------
|-----2-3-0-2---5-3-2-0-2-------------------------------------------------
|-0-3---------3-----------3-5-2-3-----------------------------------------
|-------------------------------------------------------------------------
|-------------------------------------------------------------------------


 (repeat four times, then go back to part two)
 
 (guitar two plays this until end)

|------------------------------------------------------------
|---------------------13-------------------------------------
|-------14-15-12-14------15-14-12-14----12-------------------
|-12-15-------------15---------------15----14-15-------------
|------------------------------------------------------------
|------------------------------------------------------------  

   (repeat three times)
      
   (then this)


|------------------------------------------------------------
|---------------------13-15-13-------------------------------
|-------14-15-12-14------------15-14-15-14-12-14-------------
|-12-15-------------15---------------------------------------
|------------------------------------------------------------
|------------------------------------------------------------

(and guitar 1 does this until end)

 
|------------------------------------------------------------
|------------------------------------------------------------
|------------------------------------------------------------
|--888*---0*-----------------------------------------------------
|--888*---0*---------------------------------------------------
|--888*---0*----------------------------------------------------
   *(strum numerous times)
        

| /  slide up
| \  slide down
| h  hammer-on
| p  pull-off
| ~  vibrato
| +  harmonic
| x  Mute note

Comments about this tab

GuitarFreak067 - 2005-02-20

dude.....u did an AWESOME job on this tab..its insane dude....i love As I Lay Dying..and u just nailed this tab dude..awesome job....god bless..


little_seve - 2005-04-18

This is a fantastic tab! There were just a few really minor things i thought sounded a little different, but all the solos and stuff are nearly perfect! great job!


Add a comment/correction

Complimentary Christian Ringtones
Dadamobile and CGR have teamed up to bring your favorite Christian artists right to your phone. Sign up today and get 10 complementary ringtones!
Tab Country
Did you know CGR has a sister site w/ country guitar tabs? Well we do! Its called Tab Country. It has a great archive with a lot of country tabs.
Rockin Tabs
Are you looking for a site that has rock guitar tabs? Then Rockintabs.com is the place for you. It is a budding site with many rock guitar tabs. Submit your tab today.
Tab Gallery
Tab Gallery has a compilation of christian, rock, and country tabs all in one place. Come visit us.