Guitar Tabs
song title    band name

Join Us Today!

Don't strum alone...
be a part of the largest online Christian music community. Browse thousands of guitar tabs and chat w/ musicians like yourself.


It's Free!

This tab has not yet been rated for accuracy.Sorry, but you must be logged in to rate this tab.
Click here to log-in, or you can click here to register.
(Registration is free)

All songs owned by corresponding publishing company. If you make copies of any song on this website, be sure to report your usage to CCLI.
Submitted by: josh-rock

Artist ~ Kutless
Song ~ Let You In 
Album ~ Sea of Faces
2004 bec recordings

Tuning ~ C# (C# G# C# F# A# D# )
* = Palm Mute

First part of intro ~
|--12-12---------7-7--------8-8-x-8-8-x-8-8-------
|--12-12---------7-7--------8-8-x-8-8-x-8-8-------
|-------------------------------------------------
   *  *          * *        * *   * *   * *                      
Rest of intro and Verses ~
|-12-12------7-7------8-8-x-8-8-x-8-8------12-12-------7-7----8-8-x-8-8-x-8-8--
|-12-12------7-7------8-8-x-8-8-x-8-8------12-12-------7-7----8-8-x-8-8-x-8-8--
|-12-12------7-7------8-8-x-8-8-x-8-8------12-12-------7-7----8-8-x-8-8-x-8-8--
  *  *       * *      * *   * *   * *       *  *       * *    * *   * *   * * 

Chorus ~ Guitar 1
|--12--------7h8-8-x-x-x----------12--------7h8-8-x-x-x-------------
|--12--------7h8-8-x-x-x----------12--------7h8-8-x-x-x------------- repeat
|--12--------7h8-8-x-x-x----------12--------7h8-8-x-x-x-------------

Chorus Guitar 2 ~(I cant get it exactly…… this is what I think it sounds like)
|--12-----------------------------12--------------------------
|---------12-----------------------------12-------------------  repeat
|----------------14h15-------------------------14h15----------

Bridge ~ 
|-0-0-0-0-8-0-0-10------0-0-0-0-8-0-0-10----------------------
|-0-0-0-0-8-0-0-10------0-0-0-0-8-0-0-10----------------------
|-0-0-0-0-8-0-0-10------0-0-0-0-8-0-0-10----------------------
  * * * * * * * *       * * * * * * * * 
During Rap ~ 
|--12------7-----8---8------7h8p7----3-----0-------------
|--12------7-----8---8------7h8p7----3-----0------------- repeat
|--12------7-----8---8------7h8p7----3-----0-------------

Outro~  Same as Rap

That’s about it….. I know it's not perfect. 
And you'll need to listen to the CD for 
Timing and repeat everything as necessary …… Good Luck!  JOSH

Comments about this tab

No comments/corrections found. Add your own

Complimentary Christian Ringtones
Dadamobile and CGR have teamed up to bring your favorite Christian artists right to your phone. Sign up today and get 10 complementary ringtones!
Tab Country
Did you know CGR has a sister site w/ country guitar tabs? Well we do! Its called Tab Country. It has a great archive with a lot of country tabs.
Rockin Tabs
Are you looking for a site that has rock guitar tabs? Then Rockintabs.com is the place for you. It is a budding site with many rock guitar tabs. Submit your tab today.
Tab Gallery
Tab Gallery has a compilation of christian, rock, and country tabs all in one place. Come visit us.