Guitar Tabs
song title    band name

Join Us Today!

Don't strum alone...
be a part of the largest online Christian music community. Browse thousands of guitar tabs and chat w/ musicians like yourself.


It's Free!

This tab has been rated a 4.71 out of 5 for accuracy. (7 votes)Sorry, but you must be logged in to rate this tab.
Click here to log-in, or you can click here to register.
(Registration is free)

All songs owned by corresponding publishing company. If you make copies of any song on this website, be sure to report your usage to CCLI.
Submitted by: someone13

artist: Blindside
Song: About a Burning Fire
Album: About a Burning Fire
Label: Elektra

This song is in Drop-D tuning. Many thnx to Luke (sorefingers) for helping me 
out with this tab (or it wouldn't soudn right at all.)

part 1:
E---------------------------
B---------------------------
G---------------------------
D-------1-------4----3------
A-------1-------4----3------
E-------1-------4----3------


part 2:
E--------------------------------
B--------------------------------
G--------------------------------
D-------1----1-1-1-1-----4----3--
A-------1----1-1-1-1-----4----3--
E-------1----1-1-1-1-----4----3--

part 3:
E-------------------------------------------------------------------------
B-------------------------------------------------------------------------
G-------------------------------------------------------------------------
D----6----6-6-6----9---6-6----6-6-6----9---6-6-----6-6-6----9---6-6----9--
A----6----6-6-6----9---6-6----6-6-6----9---6-6-----6-6-6----9---6-6----9--
E----6----6-6-6----9---6-6----6-6-6----9---6-6-----6-6-6----9---6-6----9--

E----------------------------
B----------------------------
G----------------------------
D--10-8-9------6---6-6-6--9-6
A--10-8-9------6---6-6-6--9-6
E--10-8-9------6---6-6-6--9-6


order:

part1 5x
part2 5x
part3 1x
part2 4x
part3 1x
part1 4x
part2 4x 

there is a little bit more that I didn't get but I don't think its too hard.

Comments about this tab

korab15 - 2005-05-23

GOOD tab man!!:D:D


3rd Bassman - 2006-04-20

good tab, just you put E in the bottom string instead of D


Only4givenOnce! - 2007-02-23

Hey Guys I'll Check This tab out for you to make sure that its' correct, I've been playing guitar for a few years, and right now I'm trying to start my own christian band, but the christian bands I talk to say I should go solo until I find the right people for my band. So I can play by ear really good and the better the tab some gives me the faster I can tell them if and what needs to be fixed or what ever. send me a message if theres a tab you'd like me to check out, I'm limited on music that I have but I can try to get what ever song it is you want checked, Pz out people.

Mark Stephens Jr., AKA, OnlyForgivenOnce ,18 In Apirl of 07,
Rockin 4 God, to reach out to the youth through my music.and on myspace.


Add a comment/correction

Complimentary Christian Ringtones
Dadamobile and CGR have teamed up to bring your favorite Christian artists right to your phone. Sign up today and get 10 complementary ringtones!
Tab Country
Did you know CGR has a sister site w/ country guitar tabs? Well we do! Its called Tab Country. It has a great archive with a lot of country tabs.
Rockin Tabs
Are you looking for a site that has rock guitar tabs? Then Rockintabs.com is the place for you. It is a budding site with many rock guitar tabs. Submit your tab today.
Tab Gallery
Tab Gallery has a compilation of christian, rock, and country tabs all in one place. Come visit us.