Guitar Tabs
song title    band name

Join Us Today!

Don't strum alone...
be a part of the largest online Christian music community. Browse thousands of guitar tabs and chat w/ musicians like yourself.


It's Free!

This tab has been rated a 3.14 out of 5 for accuracy. (7 votes)Sorry, but you must be logged in to rate this tab.
Click here to log-in, or you can click here to register.
(Registration is free)

All songs owned by corresponding publishing company. If you make copies of any song on this website, be sure to report your usage to CCLI.
Submitted by: scrawl

Title: Big
Artist: Planet Shakers

With Power Chords
-----------------------------------------
-----------------------------------------
-----------------------------------------
---2---4---5---7---9---4---5-------------
---2---4---5---7---9---4---5-------------
-------2---3---5---7---2---3-------------

5x, then 4 with your finger muting all six strings, then 7x for each 

so its like :
------------x-x-x-x----------------
------------x-x-x-x----------------
------------x-x-x-x----------------
-2-2-2-2-2-x-x-x-x-4-4-4-4-4-4-4---
-2-2-2-2-2-x-x-x-x-4-4-4-4-4-4-4---
------------x-x-x-x-2-2-2-2-2-2-2--

------------x-x-x-x----------------
------------x-x-x-x----------------
------------x-x-x-x----------------
-5-5-5-5-5-x-x-x-x-7-7-7-7-7-7-7---
-5-5-5-5-5-x-x-x-x-7-7-7-7-7-7-7---
-3-3-3-3-3-x-x-x-x-5-5-5-5-5-5-5---

------------x-x-x-x-------------------
------------x-x-x-x-------------------
------------x-x-x-x-------------------
-9-9-9-9-9-x-x-x-x-4-4-4-4-4-4-4------
-9-9-9-9-9-x-x-x-x-4-4-4-4-4-4-4------
-7-7-7-7-7-x-x-x-x-2-2-2-2-2-2-2------

---------------------
---------------------
---------------------
-5-5-5-5-5-----------
-5-5-5-5-5-----------
-3-3-3-3-3-----------

Done by gods_princess good for her, i posted them though 
and that makes me special! God bless everyone!!!

Comments about this tab

cibvr4 - 2004-11-03

INSTEAD OF 2
4
4

TRY 2
5
4

Other than that spot on!


Azzaintemple - 2005-12-02

Not quite spot on...instead of 5 Try 7
5 5
3 3


Azzaintemple - 2007-04-26

well here is how I play it
I play it all open instead of play power chords...makes it sound much richer
this is rough..because its only the finer positions..not which strings to let ring open and stuff...I cant b botherd putting that in...so you can figure that out urself...if it sounds bad..mute that string!

E|--------------------------------------------------------------------|
B|--------------------------------------------------------------------|
G|-0--2--2--2--4--2--2------------------------------------------------|
D|-0--0--0--2--4--0---------------------------------------------------|
A|-2--0--0--0--2--0---------------------------------------------------|
E|-0--2--3--x-----2--3------------------------------------------------|

thats just a rough TAB of the tag ...and you can palm mute it and realese every beat that pauses...

yeah just use these chords shapes for the whole song


Azzaintemple - 2007-04-26

The one i posted there is just the live version...played in standard E

the studio realese version of Big is actually played in Drop D tuning

These are also just the chord shapes...obviously its not the rythm aswell
E F# G A B F# G
E|--------------------------------------------------------------------|
B|--------------------------------------------------------------------|
G|--------7--2--4-----7-----------------------------------------------|
D|--2--7--7--2--4--7--7-----------------------------------------------|
A|--2--5--5--0--2--5--5-----------------------------------------------|
D|--2--4--5--x--x--4--5-----------------------------------------------|


Add a comment/correction

Complimentary Christian Ringtones
Dadamobile and CGR have teamed up to bring your favorite Christian artists right to your phone. Sign up today and get 10 complementary ringtones!
Tab Country
Did you know CGR has a sister site w/ country guitar tabs? Well we do! Its called Tab Country. It has a great archive with a lot of country tabs.
Rockin Tabs
Are you looking for a site that has rock guitar tabs? Then Rockintabs.com is the place for you. It is a budding site with many rock guitar tabs. Submit your tab today.
Tab Gallery
Tab Gallery has a compilation of christian, rock, and country tabs all in one place. Come visit us.