Guitar Tabs
song title    band name

Join Us Today!

Don't strum alone...
be a part of the largest online Christian music community. Browse thousands of guitar tabs and chat w/ musicians like yourself.


It's Free!

This tab has been rated a 5.00 out of 5 for accuracy. (1 vote)Sorry, but you must be logged in to rate this tab.
Click here to log-in, or you can click here to register.
(Registration is free)

All songs owned by corresponding publishing company. If you make copies of any song on this website, be sure to report your usage to CCLI.
Submitted by: zevian

Artist:  Jars of Clay
Title:  Lonely People
Album:  Who We Are Instead
Lyrics and music:  Dan and Catherine L. Peek 
Re-arrangement by:  Dan Haseltine, Matt Odmark, Stephen Mason, and
Charlie Lowell

Intro-tab
Someone already took care of chords so here is just the intro and also can work 
on chorus.
There are 2 guitars, one (Gtr_2) on a deeeep and stronger sound, I did my best 
with details on play, but I left some others so you can use your imagination... 
Hope you like it.


Play it at the same time...
Gtr_1			            x2
E----------------------0-0-0-0-0--------|-----------------------2-2-----3-3-----3---|
B-------3------0-------1-1-1-1-1--------|----3-3---3-3---3-3----3-3-----3-3-----3---|
G-------0-----0--------2-2-2-2-2-------o|----0-0---0-0---2-2----2-2-----0-0-----0---|
D------2-----0-------2----2---2--------o|----2-2---0-0---2-2----0-0----0--0-----0---|
A----3------2------0--------------0--2--|--3-----2-----0------------------------2---|
E---------------------------------------|---------------------2------3-------3--3---|

Gtr_2 			0 then 3    x2
E--------------------------(*)----------|-------------------------------------------|
B----------------------1-----1-1--------|-------------------------------------------|
G-------0------0--------2-----2--------o|------0-----0-----0------0-------0-----0---|
D------2------0------2---2-------------o|----2-----0-----2------0-------0-------0---|
A----3------2------0--------------0--2--|--3-----2-----0------------------------2---|
E---------------------------------------|---------------------2------3-------3--3---|

   (*) at first time play e---0--
           2nd time use e---3--

Some guy from other tabs said   "pLay iN JeSuS"
I with that.

Comments about this tab

No comments/corrections found. Add your own

Complimentary Christian Ringtones
Dadamobile and CGR have teamed up to bring your favorite Christian artists right to your phone. Sign up today and get 10 complementary ringtones!
Tab Country
Did you know CGR has a sister site w/ country guitar tabs? Well we do! Its called Tab Country. It has a great archive with a lot of country tabs.
Rockin Tabs
Are you looking for a site that has rock guitar tabs? Then Rockintabs.com is the place for you. It is a budding site with many rock guitar tabs. Submit your tab today.
Tab Gallery
Tab Gallery has a compilation of christian, rock, and country tabs all in one place. Come visit us.