Guitar Tabs
song title    band name

Join Us Today!

Don't strum alone...
be a part of the largest online Christian music community. Browse thousands of guitar tabs and chat w/ musicians like yourself.


It's Free!

This tab has been rated a 3.33 out of 5 for accuracy. (3 votes)Sorry, but you must be logged in to rate this tab.
Click here to log-in, or you can click here to register.
(Registration is free)

All songs owned by corresponding publishing company. If you make copies of any song on this website, be sure to report your usage to CCLI.
Submitted by: Adam K

Skillet-Savior
Tuning D-C-G-F-A-D
(I changed the tuning from the other "Savior"s)
Intro
Gtr.1
D[---------------0-0-0-----------------1-1-2----]
A[---------------1-1-1-----------------0-0-3----]
F[-------------4-0-0-0--4------------4-0-0-2--4-]
C[--2-4h5-4------2-2-2----2-4h5-4------0-0-0----]
G[---------5-5---3-3-3-----------5-5---2-2------]
D[-0---------------------0-------------3-3------]

D[---------------0-0-0-----------------1-]
A[---------------1-1-1-----------------0-]
F[-------------4-0-0-0--4------------4-0-]
C[--2-4h5-4------2-2-2----2-4h5-4------0-]
G[---------5-5---3-3-3-----------5-5---2-]
D[-0---------------------0-------------3-]
Gtr.2
F[------5---------5-]
C[-2----5----2----5-]
G[-2----3----2----3-]x2
D[-0---------0------]

Verse 1
Gtr.1
D[---------------0-0-0-----------------1-1-2----]
A[---------------1-1-1-----------------0-0-3----]
F[-------------4-0-0-0--4------------4-0-0-2--4-]
C[--2-4h5-4------2-2-2----2-4h5-4------0-0-0----]
G[---------5-5---3-3-3-----------5-5---2-2------]x2
D[-0---------------------0-------------3-3------]
Then just chords
Em D C
Em D G D
Em D C
Em D
Then...
Gtr.2
C[-xxxx-2-2-xxxx-2-2-]
G[-xxxx-2-2-xxxx-2-2-]
D[-xxxx-0-0-xxxx-0-0-]

Chorus
Gtr.2
F[----------7--5----------------]
C[-2--2--2--7--5--2--2--2--5--4-]
G[-2--2--2--5--3--2--2--2--5--5-]x2
D[-0--0--0--------0--0--0--3--2-]

Post-Chorus
Gtr.2
F[------5---------5-]
C[-2----5----2----5-]
G[-2----3----2----3-]x2
D[-0---------0------]

Verse 2
(Same as Verse 1)
Chorus

Post-Chorus 2
Gtr.1
A[-7-8-----7-8--3--7-8--12-13--7-8--3-]
F[-----4-5----------------------------]
Gtr.2
F[----------7--5----------------]
C[-2--2--2--7--5--2--2--2--5--4-]
G[-2--2--2--5--3--2--2--2--5--5-]x2
D[-0--0--0--------0--0--0--3--2-]

Bridge
Gtr.1
D[-00338877-00338877-00338877-00338877-]
Gtr.2
F[------5---------5-]
C[-2----5----2----5-]
G[-2----3----2----3-]
D[-0---------0------]
Gtr.1
D[-00338877-00338877-00338877-00338877-]
P.M....................................
Gtr.2
F[------5---------5-]
C[-2----5----2----5-]
G[-2----3----2----3-]
D[-0---------0------]
Then...
F[-7--5---7--5-979-]
C[-7--5---7--5-----]
G[-5--3---5--3-----]x2
D[-----------------]
Then...
Gtr.1
F[-75757575-10/10-]x4
Gtr.2
C[-2--4-5--7-7-]
G[-2--4-5--7-7-]x4
D[-0--2-3--5-5-]

Chorus 2
Gtr.1
D[---------------0-0-0-----------------1-1-2----]
A[---------------1-1-1-----------------0-0-3----]
F[-------------4-0-0-0--4------------4-0-0-2--4-]
C[--2-4h5-4------2-2-2----2-4h5-4------0-0-0----]
G[---------5-5---3-3-3-----------5-5---2-2------]
D[-0---------------------0-------------3-3------]

D[---------------0-0-0-----------------1-]
A[---------------1-1-1-----------------0-]
F[-------------4-0-0-0--4------------4-0-]
C[--2-4h5-4------2-2-2----2-4h5-4------0-]
G[---------5-5---3-3-3-----------5-5---2-]
D[-0---------------------0-------------3-]
Gtr.2
C[-222222-]
G[-222222-]
D[-000000-]
P.M.......

Chorus
F[----------7--5----------------]
C[-2--2--2--7--5--2--2--2--5--4-]
G[-2--2--2--5--3--2--2--2--5--5-]x4
D[-0--0--0--------0--0--0--3--2-]

Ending
F[------5---------5-]
C[-2----5----2----5-]
G[-2----3----2----3-]x3
D[-0---------0------]

C[-2--2--2-]
G[-2--2--2-]
D[-0--0--0-]

 2003 Photon Music (BMI).

Tabbed by Adam K.

Comments about this tab

mattster88 - 2004-06-22

D|-----------------------(3)-------------------------------------------------|
A|--------------------3---3---------------------0----0-----0-----------------|
F|-------0h2p0-----2------4----------0h2p0----2------4-----4-----------------|
C|-----2--------0---------5--------2--------0--------5-----7-----------------|
G|------------------------3--------------------------5-----4-----------------|
C|---2---------------------------2------------------(5)---(4)----------------|

Strum the chord as many times as needed, I just have the chord here.

D|---------------------(3)---------------------------------------------------|
A|-----------------3----3------------------0---0-----------------------------|
F|-------0h2p0---2------4--------0h2p0---2-----4-----------------------------|
C|-----2-------0--------5------2-------0-------5--------x-x-x-x-x-x----------|
G|----------------------3----------------------5--------x-x-x-x-x-x----------|
C|---2-----------------------2----------------(5)-------x-x-x-x-x-x----------|
into chorus....

Hey Adam this is the acoustic part. Tuned in drop C (DAFCGC). Have fun.


Adam K - 2004-11-02

Your acoustic version doesn't sound right. Is your guitar tuned?


Add a comment/correction

Complimentary Christian Ringtones
Dadamobile and CGR have teamed up to bring your favorite Christian artists right to your phone. Sign up today and get 10 complementary ringtones!
Tab Country
Did you know CGR has a sister site w/ country guitar tabs? Well we do! Its called Tab Country. It has a great archive with a lot of country tabs.
Rockin Tabs
Are you looking for a site that has rock guitar tabs? Then Rockintabs.com is the place for you. It is a budding site with many rock guitar tabs. Submit your tab today.
Tab Gallery
Tab Gallery has a compilation of christian, rock, and country tabs all in one place. Come visit us.