Guitar Tabs
song title    band name

Join Us Today!

Don't strum alone...
be a part of the largest online Christian music community. Browse thousands of guitar tabs and chat w/ musicians like yourself.


It's Free!

This tab has been rated a 3.50 out of 5 for accuracy. (4 votes)Sorry, but you must be logged in to rate this tab.
Click here to log-in, or you can click here to register.
(Registration is free)

All songs owned by corresponding publishing company. If you make copies of any song on this website, be sure to report your usage to CCLI.
Submitted by: littleman412

Artist: By the Tree
Song: Walk
Tabbed By: Ben Anderson (bigbadben333@msn.com)

*I play this song the easiest way with a capo on the third fret, so all of the 
notes and frets are relative to the position of the capo

h = hammer on
b1 = bend 1/2 fret (listen to the song for exact amount of times bent)
b2 = bend 1 fret (listen to the song for exact amount of times bent)

Verse 1:

  D            Asus            Bm        G
 
  D            Asus            Bm        G
 

  D            Asus            Bm        G
 
Chorus:

 D                Asus-A        Bm     G
 
   D                Asus-A        Bm      G
  

Solo 1: (relative to capo(3))

E-----------------------------------------------------------------------
B-----------------------------------------------------------------------
G--------10-------------12b1--12--10---------10-------------12b2-12-12b2
D--10h12----10-10h12-12---------------10h12-----10-10h12-12-------------
A-----------------------------------------------------------------------
E---------------------------------------------------------------------


Verse 2:

 D          Asus          Bm      G
 
  D          Asus          Bm       G
 


PreChorus:

 A     G       A      G
 


Chorus:

 D           Asus-A        Bm      G
 

  D           Asus-A         Bm       G
 


Bridge:

(workin' on it, 'cuz there really isn't any 
       guitar, but I'll find the notes)


Verse Repeat:

 D           Asus           Bm

      G
 


Chorus: (3x)

 D           Asus-A         Bm      G
 

  D           Asus-A         Bm       G
 


Solo 2: (relative to capo(3))

E-----------------------------------------------------------------------
B-----------------------------------------------------------------------
G--------10-------------12b1--12--10---------10-------------12b2-12--12-
D--10h12----10-10h12-12---------------10h12-----10-10h12-12-------------
A-----------------------------------------------------------------------

questions or comments?: Ben Anderson @ bigbadben333@msn.com

Comments about this tab

B-rad - 2004-05-06

Good way to play it, but Chuck Dennie plays with it on the first fret, although your way will work too and is probably even better.


Add a comment/correction

Complimentary Christian Ringtones
Dadamobile and CGR have teamed up to bring your favorite Christian artists right to your phone. Sign up today and get 10 complementary ringtones!
Tab Country
Did you know CGR has a sister site w/ country guitar tabs? Well we do! Its called Tab Country. It has a great archive with a lot of country tabs.
Rockin Tabs
Are you looking for a site that has rock guitar tabs? Then Rockintabs.com is the place for you. It is a budding site with many rock guitar tabs. Submit your tab today.
Tab Gallery
Tab Gallery has a compilation of christian, rock, and country tabs all in one place. Come visit us.