Guitar Tabs
song title    band name

Join Us Today!

Don't strum alone...
be a part of the largest online Christian music community. Browse thousands of guitar tabs and chat w/ musicians like yourself.


It's Free!

This tab has been rated a 4.43 out of 5 for accuracy. (14 votes)Sorry, but you must be logged in to rate this tab.
Click here to log-in, or you can click here to register.
(Registration is free)

All songs owned by corresponding publishing company. If you make copies of any song on this website, be sure to report your usage to CCLI.
Submitted by: coolbeans5627

Title: Savior
 Album: Collide
Artist: Skillet


Okay here is thte coolest song ever!!! Skillet rocks hard-core, and this is
their best Cd ever. Go buy it right now to support your local Skillet band.
The reason why you should put this song on your site is that the other ones 
were pretty close but had a couple of repeated mistakes in them that didn't sound very
good when you play with the Cd.


Drop D Tuning - DADGBe


(Intro)
e--------------1----------------------1-----3-------
B--------------3----------------------1-----3-------
G------------2-2------------------2---2-----4-------
D--0--2h3-2----3--------0--2h3-2------3-----5------- 
A----------3---1----------------3-----3-----5-------
D-0--------------------0----------------------------

e--------------1----------------------3----
B--------------3----------------------3----
G------------2-2------------------2---4----
D--0--2h3-2----3--------0--2h3-2------5----
A----------3---1----------------3-----5----
D-0--------------------0-------------------

(Intro 2)
G-------
D-0--8--
A-0--8-- x4
D-0--8--

(Verse)
e--------------1----------------------1-----3-------
B--------------3----------------------1-----3-------
G------------2-2------------------2---2-----4------- (2x)
D--0--2h3-2----3--------0--2h3-2------3-----5------- 
A----------3---1----------------3-----3-----5------- 
D-0--------------------0----------------------------

e--------------1----------------------1-----3-------
B--------------3----------------------1-----3-------
G------------2-2------------------2---2-----4-------
D--0--2h3-2----3--------0--2h3-2------3-----5------- 
A----------3---1----------------3-----3-----5-------
D-0--------------------0----------------------------

e--------------1--------------------------------
B--------------3--------------------------------
G------------2-2--------------------------------
D--0--2h3-2----3--------0--2h3-2---xx-0-0-xx-0-0
A----------3---1----------------3--xx-0-0-xx-0-0
D-0--------------------0-----------xx-0-0-xx-0-0

(Chorus)
G-----------5--2----------------------
D-0--0--0---5--2--0--0--0---3-2------- (2x)
A-0--0--0---3--0--0--0--0---3-2------- 
D-0--0--0---------0--0--0---3-2-------

(Intro 2)
G-------
D-0--8-- (4x)
A-0--8-- 
D-0--8--

(Verse)
e--------------1----------------------1-----3-------
B--------------3----------------------1-----3-------
G------------2-2------------------2---2-----4------- (2x)
D--0--2h3-2----3--------0--2h3-2------3-----5------- 
A----------3---1----------------3-----3-----5------- 
D-0--------------------0----------------------------

e--------------1----------------------1-----3-------
B--------------3----------------------1-----3-------
G------------2-2------------------2---2-----4-------
D--0--2h3-2----3--------0--2h3-2------3-----5------- 
A----------3---1----------------3-----3-----5-------
D-0--------------------0----------------------------

e--------------1--------------------------------
B--------------3--------------------------------
G------------2-2--------------------------------
D--0--2h3-2----3--------0--2h3-2---xx-0-0-xx-0-0
A----------3---1----------------3--xx-0-0-xx-0-0
D-0--------------------0-----------xx-0-0-xx-0-0

(Chorus)
G-----------5--2----------------------
D-0--0--0---5--2--0--0--0---3-2------- (2x)
A-0--0--0---3--0--0--0--0---3-2------- 
D-0--0--0---------0--0--0---3-2-------

(Post-Chorus Riff)
e------------------------------------------
B-5-6------5-6---1---5-6-----------5-6---1-
G------2-3----------------2-3--------------
D------------------------------------------

(Bridge)
G---------------------------
D-0--0--0--0---0--8--0--8--- (2x)
A-0--0--0--0---0--8--0--8---
D-0--0--0--0---0--8--0--8---
P.m.........                         

(Interlude)
G-5--3--5--3--7h5-7-5--3--5--3--7h5-7-   
D-5--3--5--3--------5--3--5--3--------  
A-3--1--3--1--------3--1--3--1--------   
D-------------------------------------   

G--------------------------
D-0-0--2-2--3-3--5-5-5-5--- (4x)
A-0-0--2-2--3-3--5-5-5-5--- 
D-0-0--2-2--3-3--5-5-5-5---

(Chorus 2)
e--------------1----------------------1----3---
B--------------3----------------------1----3---
G------------2-2------------------2---2----4---
D--0--2h3-2----3--------0--2h3-2------3----5---
A----------3---1----------------3-----3----5---
D-0--------------------0-----------------------


e-------------1--------------------1---------------
B--------------3--------------------1--------------
G------------2-2------------------2-2--------------
D--0--2h3-2----3--------0--2h3-2----3--3-3-3-3-3-3-
A----------3---1----------------3---3--3-3-3-3-3-3-
D-0--------------------0---------------3-3-3-3-3-3-
 P.m.                                  ...........

(Chorus) 
G-----------5--3----------------------
D-0--0--0---5--3--0--0--0---3-2-------
A-0--0--0---3--1--0--0--0---3-2------- (4x)
D-0--0--0---------0--0--0---3-2-------

(Ending)
G------   ---------
D-0--8-   -0--0--0-
A-0--8- x3-0--0--0-
D-0--8-   -0--0--0-

Comments about this tab

coolbeans5627 - 2004-06-24

Hey yah sorry...
when tabbing this i messed up and screwed the Chorus up... all of the Choruses should be like this.

(Chorus)
G-----------5--3----------------------
D-0--0--0---5--3--0--0--0---3-2-------
A-0--0--0---3--1--0--0--0---3-2------- (4x)
D-0--0--0---------0--0--0---3-2-------


coolbeans5627 - 2004-10-07

Me again... ummmm i saw Ben playing it live and i had some of the fingering wrong when i tabbed this. It's not that big of a deal, but if yah wanna be perfect this is one more thing you can add to it.

(Chorus)
G-----------5---------------------------
D-0--0--0---5--*8*--0--0--0---3-2------- (2x)
A-0--0--0---3--*8*--0--0--0---3-2-------
D-0--0--0------*8*--0--0--0---3-2-------

* = the fixed part.


I am here - 2004-11-08

Great Tab!


JoyGifted - 2005-01-10

Sweet, sounds just like it!


joshrichins - 2005-01-22

the tab sounds great but are the acoustic chourds right


guitardude1 - 2005-04-15

i'll bet you could email ben & find out how to play every single song on the cd


110%panhead - 2005-08-01

dude this is awesome!


drumbum_nzbpt - 2005-10-06

i went to their concert on saturday and neither ben nor the back-up guitarist played the picking part for the intro. they played chords. i was wondering if anybody knows the chords for the intro.


mmggppmgp - 2006-03-09

hey man great tab... its not note per note but i like it like that cuz its up to me to mess around with it. good job


ChurchPunk88 - 2006-06-07

sorry bro, but the intro is a bit off... I saw them at Spirit West Coast, & Ben was playing the picking part kinda like a "C" chord with a pink add then pull off, then he'd go down around the 7th or 9th fret... So u might want to fix that... But good job other wise!!!

AAChurchPunk88


Guitars4ever9 - 2006-07-03

is this the new or old version of savior?


monkeysmile - 2006-11-23

Try this for the intro:

D#---------------------------------
A#----------------------0/0/0/0/0--
F#----------------4p0---0/0/0/0/0--
C#---2-4h5p4-----2------5/5/5/5/5--
G#-------------5--------3/3/3/3/3--
C#--2------------------------------

D#--------------------------------------
A#---------------------0-0/0---0---0/0--
F#----------------4p0--0-0/0---0---0/0--
C#---2-4h5p4-----2-----5-5/5--12--12/12-
G#--------------5------3-3/3--12--12/12-
C#--2-----------------------------------

D#-------------------------
A#-------------------------
F#------------------4------
C#---2---4h5p4-----2----5--
G#----------------5-----5--
C#--2-------------------5--
________________________________________________________________________


monkeysmile - 2006-11-23

intro 2:the arrows indicate stroke.
^ v ^ ^ v ^ ^ ^ v ^ ^ ^
F#--------------------3/3-3/3/3
C#--0/0/0--0/0--0-0---3/3-3/3/3
G#--0/0/0--0/0--0-0---1/1-1/1/1 x2
C#--0/0/0--0/0--0-0---1/1-1/1/1
________________________________________


downer227 - 2007-01-29

thisis the new version dude


alexsimms - 2007-03-25

might just be me, but i think the intro he had down was closer to right


Add a comment/correction

Complimentary Christian Ringtones
Dadamobile and CGR have teamed up to bring your favorite Christian artists right to your phone. Sign up today and get 10 complementary ringtones!
Tab Country
Did you know CGR has a sister site w/ country guitar tabs? Well we do! Its called Tab Country. It has a great archive with a lot of country tabs.
Rockin Tabs
Are you looking for a site that has rock guitar tabs? Then Rockintabs.com is the place for you. It is a budding site with many rock guitar tabs. Submit your tab today.
Tab Gallery
Tab Gallery has a compilation of christian, rock, and country tabs all in one place. Come visit us.