Guitar Tabs
song title    band name

Join Us Today!

Don't strum alone...
be a part of the largest online Christian music community. Browse thousands of guitar tabs and chat w/ musicians like yourself.


It's Free!

This tab has been rated a 3.00 out of 5 for accuracy. (2 votes)Sorry, but you must be logged in to rate this tab.
Click here to log-in, or you can click here to register.
(Registration is free)

All songs owned by corresponding publishing company. If you make copies of any song on this website, be sure to report your usage to CCLI.
Submitted by: IncuThrice07

-------------------------------------------------------------------------------
		     ALL I CAN SAY - David Crowder
-------------------------------------------------------------------------------

By:  Gary(incuthrice07@gawab.com)

CAPO 3rd FRET!

h - hammer on
~ - let ring out
p - pull off

Intro:  (2x)
e|----------0~----------0------------------0---------------------------------|
B|----------3~----------3-----3--------------3-------------------------------|
G|-------------0--0h2---2p0---0----------------------------------------------|
D|----------------------------2--------0h2-----2p0---------------------------|
A|------2---------------------2--0h2-3---------------------------------------|
E|0h2-3-----------2---2-----0-0----------------------------------------------|

Verse:  (Repeat Intro)

Chorus:  (Repeat Intro, just the chords without fills)

Bridge:
e|--------0---------------0---------------0---------------0------------------|
B|------3---3---3-------3---3---3-------3---3---3-------3---3---3------------|
G|----0-------0-------0-------0---------------0-------0-------0--------------|
D|------------------------------------2-------------2------------------------|
A|--2---------------0---------------2-------------3--------------------------|
E|3---------------2---------------0------------------------------------------|

Repeat Verse

Repeat Chorus

Repeat Bridge

Repeat Verse

Repeat Chorus

Repeat Verse

End on
e|----|
B|----|
G|----|
D|----|
A|-2~-|
E|-3~-|

E-mail me any comments, questions, etc.
===============================================================================

Comments about this tab

RSTYWLSN1986 - 2005-10-14

Pretty close, capo on 3 for the key Crowder uses on the Album.


RSTYWLSN1986 - 2005-10-14

oops, sorry. Correct my correction. I didn't see your capo 3 at the top. Sorry again!


Add a comment/correction

Complimentary Christian Ringtones
Dadamobile and CGR have teamed up to bring your favorite Christian artists right to your phone. Sign up today and get 10 complementary ringtones!
Tab Country
Did you know CGR has a sister site w/ country guitar tabs? Well we do! Its called Tab Country. It has a great archive with a lot of country tabs.
Rockin Tabs
Are you looking for a site that has rock guitar tabs? Then Rockintabs.com is the place for you. It is a budding site with many rock guitar tabs. Submit your tab today.
Tab Gallery
Tab Gallery has a compilation of christian, rock, and country tabs all in one place. Come visit us.