Guitar Tabs
song title    band name

Join Us Today!

Don't strum alone...
be a part of the largest online Christian music community. Browse thousands of guitar tabs and chat w/ musicians like yourself.


It's Free!

This tab has been rated a 5.00 out of 5 for accuracy. (1 vote)Sorry, but you must be logged in to rate this tab.
Click here to log-in, or you can click here to register.
(Registration is free)

All songs owned by corresponding publishing company. If you make copies of any song on this website, be sure to report your usage to CCLI.
Submitted by: a_kit

Title: Son of God 
Artist: Marty Sampson & Lincoln Brewster

Intro: D  D2  G2  D (2X)

Verse 1:
D   G2   A   D (x2)

D/F#  G2  A   D  (x2)



Solo: D  G  A  D


Verse 2:
D  G2  A  D  (x2)

D/F#   G    A    D

D/F#   G2   A    D   D2   G

Chorus:
G   D/F#         

G   G/B   Asus4   A

D/F#   G   Bm   A

G   A   Bm   A           
                
G   A   D


Interlude: D  Dsus4  Em  Em7  G/B  A
                 D  D2  Bm  Em  Em7  G/B  A  (3X)

Next part (Jesus, oh Jesus...):
D   G    A    D

D/F#  G   A   D  

D   G   A   D

D/F#   G    A    D       (D   D2  G - to chorus)   


Solo on D  G  A  D to end

Comments about this tab

J.W4Christ - 2004-08-15

SOLO:
e---------------------------------------|
B---------------------------------------|
G--3-3-------3-3-------5-5-------5-5----|
D------6-5-6-----6-5-6-----6-5-6--------|
A---------------------------------------|
E---------------------------------------|

e-------------------------------------------------|
B--------3-3-------3-3-------4-4-------4-4--------|
G-------------------------------------------------|
D--6-5-6-----6-5-6-----6-5-6-----6-5-6-----6-5-6--|
A-------------------------------------------------|
E-------------------------------------------------|


guitarboy_86 - 2004-08-15

Close, but I think this is it.

Tuning: EADGBE

G|------------------------4--4-------4--4-------6--6-------6--6-------7

D|--7--7-5-4-5-7--7-5-4-5------5-4-5------5-4-5------5-4-5------5-4-5-


G|-7-------7-------------------------------------------------------|
(Repeat)
D|---5-4-5---7-5-4-5-7---------------------------------------------|


christionskid - 2005-03-29

I think it's this...

e-------------------------------------------------|
B-------------------------------------------------|
G--------2-2-------2-2-------4-4-------4-4--------|
D--5-4-5-----5-4-5-----5-4-5-----5-4-5-----5-4-5--|
A-------------------------------------------------|
E-------------------------------------------------|



e--------------------------------------------|
B--------------------------------------------|
G---6-6-------6-6-------7-7-------7-7--------|
D-------5-4-5-----5-4-5-----5-4-5-----5-4-5--|
A--------------------------------------------|
E--------------------------------------------|

there ya go...
in his service
Christionskid



lookitsrich - 2008-04-11

You guys are all close but this is how it should be played as he pedals off of the open G and open D:

1st Phrase (2x)
e---------------|
B---------------|
G---2-0-2-0-----|
D-----------4-0-|
A---------------|
E---------------|

2nd Phrase (2x)
e---------------|
B---------------|
G---4-0-4-0-----|
D-----------4-0-|
A---------------|
E---------------|

3rd Phrase (2x)
e---------------|
B---------------|
G---6-0-6-0-----|
D-----------4-0-|
A---------------|
E---------------|

4th (last) Phrase (2x)
e---------------|
B---------------|
G---7-0-7-0-----|
D-----------4-0-|
A---------------|
E---------------|

Blessings,

Rich


Add a comment/correction

Complimentary Christian Ringtones
Dadamobile and CGR have teamed up to bring your favorite Christian artists right to your phone. Sign up today and get 10 complementary ringtones!
Tab Country
Did you know CGR has a sister site w/ country guitar tabs? Well we do! Its called Tab Country. It has a great archive with a lot of country tabs.
Rockin Tabs
Are you looking for a site that has rock guitar tabs? Then Rockintabs.com is the place for you. It is a budding site with many rock guitar tabs. Submit your tab today.
Tab Gallery
Tab Gallery has a compilation of christian, rock, and country tabs all in one place. Come visit us.