Guitar Tabs
song title    band name

Join Us Today!

Don't strum alone...
be a part of the largest online Christian music community. Browse thousands of guitar tabs and chat w/ musicians like yourself.


It's Free!

This tab has been rated a 5.00 out of 5 for accuracy. (1 vote)Sorry, but you must be logged in to rate this tab.
Click here to log-in, or you can click here to register.
(Registration is free)

All songs owned by corresponding publishing company. If you make copies of any song on this website, be sure to report your usage to CCLI.
Submitted by: xlx_Jason_xlx

Title: All The Above
Album: Spoken For
Artist: MercyMe
Tabbed by: Jason

Reason for submitting: full version

/ = slide up
~ = vibrato


Verse #1
C -- Dm -- Am -- F (repeat 4 times)

Chorus
F(add9) -- G -- Am7 -- A# (repeat 2 times)

Post-chorus
Fmaj7 -- A#

Verse #2
C -- Dm -- Am -- F (repeat 4 times)

Chorus
F(add9) -- G -- Am7 -- A# (repeat 2 times)

Post-chorus
Fmaj7 -- A#

Bridge
Am7 -- Fmaj7 -- C -- D(add9)

Solo between Bridge going back to chorus
e|------------------------|--------------------------
B|------------------------|--------------------------
G|-----5--7/9--5--5--7--7-|------5--7/9-7-7--5-----5-
D|-5--7-----------------5-|--5--7--------------5---8-
A|------------------------|--------------------------
E|------------------------|--------------------------

Chorus
F(add9) -- G -- Am7 -- A# (repeat 4 times)

Post-chorus
Fmaj7 -- A#

End solo (repeat 2 times)
e|------------12~-------------10~-10~----|
B|-10~-10~--8~-----10~-10~-10~------10~--|
G|---------------------------------------|
D|---------------------------------------|
A|---------------------------------------|
E|---------------------------------------|

End strum
e|--8----|
B|--8----|
G|--9----|
D|-10----|
A|--x----|
E|--x----|

questions of comments email me at free_to_run03@yahoo.com. Enjoy!

Comments about this tab

JCforme - 2006-08-14

good tab. everything is right


Fenderuser91 - 2006-08-15

I absolute ly love this song. thanks for tabbing it.


Add a comment/correction

Complimentary Christian Ringtones
Dadamobile and CGR have teamed up to bring your favorite Christian artists right to your phone. Sign up today and get 10 complementary ringtones!
Tab Country
Did you know CGR has a sister site w/ country guitar tabs? Well we do! Its called Tab Country. It has a great archive with a lot of country tabs.
Rockin Tabs
Are you looking for a site that has rock guitar tabs? Then Rockintabs.com is the place for you. It is a budding site with many rock guitar tabs. Submit your tab today.
Tab Gallery
Tab Gallery has a compilation of christian, rock, and country tabs all in one place. Come visit us.