Guitar Tabs
song title    band name

Join Us Today!

Don't strum alone...
be a part of the largest online Christian music community. Browse thousands of guitar tabs and chat w/ musicians like yourself.


It's Free!

This tab has been rated a 5.00 out of 5 for accuracy. (4 votes)Sorry, but you must be logged in to rate this tab.
Click here to log-in, or you can click here to register.
(Registration is free)

All songs owned by corresponding publishing company. If you make copies of any song on this website, be sure to report your usage to CCLI.
Submitted by: p2008j

Artist: P.O.D.                                    \- slide
Song: Satellite                                   *-harmonics
Album: Satellite                                  h- hammer on
Tabbed By: P.J. Ray
tuning: D,G,C,F,A,D
This is the absolute right way to play this.
Listen to the Cd to get the timing right.

Intro Palm Muted, Play this fast
D-----------------------------------------------------------|
A-----------------------------------------------------------|
F--------777------777-----77-------444-------444------44----|
C---999--999-999--999--99-99--555--555--555--555--55--55----|
G---777------777-------77-----333-------333-------33--------|
D-----------------------------------------------------------|

Intro Cont'd:
                                |Palm Muting ends
D--------------------------------------------------------|
A--------------------------------------------------------|
F--------444-------444------44--4444444444444444---------|
C---222--555--222--555--22--55--5555555555555555---------|
G---000-------000-------00------3333333333333333---------|
D--------------------------------------------------------|

Intro cont'd: Yell Satellite
on the parts where you slide, slide slow
D-----------------------------------------------------------------------------
A-----------------------------------------------------------------------------
F-----------------------------------------------------------------------------
C--999-7-9-7-99-7-99--555\777----------5*5*5*5*-------------------------------
G--777-7-7-7-77-7-77--333\555--5*5*5*5*--------5*5*--3\7777757775\10-10-10-10-
D--------0----0----0---------------------------------3\5555555555\8--8--8--8--

Intro ending:
                           
D-------------------------------77--------------------------|
A----------------------------8--88--88----------------------|
F----------------------------9------99--7-------------------|
C-----------------------------------------------------------|
G-12---10h12h10h9--12-10-10---------------------------------|
D------------------10-8--8----------------------------------|
                                

Comments about this tab

39lashes - 2004-10-01

dude, you are dead on, ive go the satellite songbook and youre exactly like it
-charlie


Richard H - 2005-01-04

If you've got the songbook, why don't you put the rest of the song on this site?


p2008j - 2005-01-23

If you know the intro you pretty much play the rest of the song exept the solo


p2008j - 2005-02-05

I you know the intro you can play the rest of the song, except the solo
The solo goes like this: r= fret 11
d|-----------------------------------------------------------------|
A|-----------------------------------------------------------------|
F|--9999\rrr\121212\141414\16\17\16\17\16\17-----------------------|
C|--xxxx\xxx\-x-x-x\-x-x-x\-x\-x--x--x--x--x-----------------------|
G|--7777\999\101010\121212\14\15\14\15\14\15-----------------------|
D|-----------------------------------------------------------------|
play 2x

d------------------------------------------------------------------|
A------------------------------------------------------------------|
F-161616\141414\121212---------------------------------------------|
C--x-x-x\-x-x-x\-x-x-x---------------------------------------------|
G-141414\121212\101010---------------------------------------------|
D------------------------------------------------------------------|

Then go back into the chorus


Truby - 2005-06-01

really good tab the only change is, that the palm mute goes like this


G---------7-7-7---------7-7-7-------7-7----------------
D-9-9-9---9-9-9--9-9-9--9-9-9--9-9--9-9----------------
A-7-7-7----------7-7-7---------7-7--------------------
-pm- -pm- -pm-

And it continues like this the whole intro


Truby - 2005-06-01

really good tab the only change is, that the palm mute goes like this


G---------7-7-7---------7-7-7-------7-7----------------
D-9-9-9---9-9-9--9-9-9--9-9-9--9-9--9-9----------------
A-7-7-7----------7-7-7---------7-7--------------------
-pm- -pm- -pm-

And it continues like this the whole intro


JESUSFReaK301 - 2007-01-20

this is without playing the song, so i don't know if it is right or wrong, but to me it sounds as if there is a pull off or something when he switches chords, but only some of them. Please tell me if i'm right or wrong.


Add a comment/correction

Complimentary Christian Ringtones
Dadamobile and CGR have teamed up to bring your favorite Christian artists right to your phone. Sign up today and get 10 complementary ringtones!
Tab Country
Did you know CGR has a sister site w/ country guitar tabs? Well we do! Its called Tab Country. It has a great archive with a lot of country tabs.
Rockin Tabs
Are you looking for a site that has rock guitar tabs? Then Rockintabs.com is the place for you. It is a budding site with many rock guitar tabs. Submit your tab today.
Tab Gallery
Tab Gallery has a compilation of christian, rock, and country tabs all in one place. Come visit us.