Guitar Tabs
song title    band name

Join Us Today!

Don't strum alone...
be a part of the largest online Christian music community. Browse thousands of guitar tabs and chat w/ musicians like yourself.


It's Free!

This tab has been rated a 4.25 out of 5 for accuracy. (4 votes)Sorry, but you must be logged in to rate this tab.
Click here to log-in, or you can click here to register.
(Registration is free)

All songs owned by corresponding publishing company. If you make copies of any song on this website, be sure to report your usage to CCLI.
Submitted by: p2008j

Blindside
Caught a glimpse
Silence
tabbed by: Patrick Ray
tuning low to high: C#,G#,C#,F#,A#,D,
Liten to the song to get the timing right
Intro:
d#----------------------------------
A#----------------------------------
F#---------2---3---0---2---2---2---2
C#-3-2-0-----0---0---0---0---0---0--
G#----------------------------------
C#-------0--------------------------

d#-----------------------------------
A#-----------------------------------
F#---------2---3---\7---7---7---7---7
C#-3-2-0-----0---0----0---4---4---4--
G#-----------------------------------
C#-------0---------------------------

Verse:  play it 4 times

Ed|-----------------------------------------------|
Bd|-----------------------------------------------|
F#|--------------7-----8-----12-----11------------|
C#|--5--4--3--0--7--0--8--0--12--0--X-------------|
G#|--5--4--3--0--5--0--6--0--10--0--9-(14x)-------|
C#|--5--4--3--0-----0-----0------0----------------|

Pre Chorus:

Ed|--------------------------------------------------|
Bd|--------------------------------------------------|
F#|--------------------------------------------------|
C#|--7--8--7--0--5--0--5--3--0-----------------------|
G#|--7--8--7--0--5--0--5--3--0-----------------------|
C#|--7--8--7--0--5--0--5--3--0-----------------------|

Chorus:

Ed|-------------------------------------------------|
Bd|--10-------11--8---------------------------------|
F#|---X--------X--X---------------------------------|
C#|---7-(7x)---8--5---7--8--7--0--5--0--5--3--0-----|
G#|-------------------7--8--7--0--5--0--5--3--0-----|
C#|-------------------7--8--7--0--5--0--5--3--0-----|

Ed|--1--3-------------------------------------------|
Bd|--1--3-------------------------------------------|
F#|--3--5-------------------------------------------|
C#|--3--5---7--8--7--0--5--0--5--3--0---------------|
G#|--1--3---7--8--7--0--5--0--5--3--0---------------|
C#|---------7--8--7--0--5--0--5--3--0---------------|

Ed|-------------------------------------------------|
Bd|--10-------11--8---------------------------------|
F#|---X--------X--X---------------------------------|
C#|---7-{7x}---8--5---7--8--7--0--5--0--5--3--0-----|
G#|-------------------7--8--7--0--5--0--5--3--0-----|
C#|-------------------7--8--7--0--5--0--5--3--0-----|

Ed|--1--1--0--3------------------------------------------|
Bd|--1--1--2--3------------------------------------------|
F#|--3--3--2--5--7---------------------------------------|
C#|--3--3--2--5--5---------------------------------------|
G#|--1--1--0--3--5---------------------------------------|
C#|--------------5---------------------------------------|

Play this in second verse after third part:

Ed|----------------------------------------------------------|
Bd|----------------------------------------------------------|
F#|----------------------------------------------------------|
C#|----------------------------------------------------------|
G#|--8-7-5---------------------------------------------------|
C#|--------0-5-0---------------------------------------------|

Break:

Ed|---------------------------------------------------|
Bd|---------------------------------------------------|
F#|---------6--6\7--7---------8--8--X--X--7--8--8-----|
C#|--0--0---6--6\7--7---------6--6--X--X--5--6--6-----|
G#|--0--0---4--4\5--5-{12x}---6--6--X--X--5--6--6-----|
C#|--0--0---------------------6--6--X--X--5--6--6-----|

Ed|--------------------------------------------------------|
Bd|--------------------------------------------------------|
F#|-X--X--7--10--------------------------------------------|
C#|-X--X--5--8---------------------------------------------|
G#|-X--X--5--8---------------------------------------------|
C#|-X--X--5--8-{9x)----------------------------------------|

x- number of times to play
X- mute
\- slide up

Comments about this tab

stratguitarist - 2004-09-06

the verse uses octaves, goes like this:

Eb|-----------------------------------------------------
Ab|-----------------------------------------------------
Db|----------------7-------8-------12-------11--11--11-
Gb|--6--5--3---0---x---0---x---0---x----0---x---x---x-- (keep playing that octave for a while)
Bb|--6--5--3---0---5---0---6---0---10---0---9---9---9--
eb|--6--5--3---0-------0-------0--------0---------------

then the little pre-chorus/transition thing goes like'a dis:

Eb|-----------------------------------------------------
Ab|-----------------------------------------------------
Db|-----------------------------------------------------
Gb|-7-8-7-5-3-0-5---3---0------------------------------
Bb|-7-8-7-5-3-0-5---3---0------------------------------
eb|-7-8-7-5-3-0-5---3---0------------------------------

i have no clue how the chorus goes, so much together, gets jumbled and unintelligeable, but sounds awesome


Add a comment/correction

Complimentary Christian Ringtones
Dadamobile and CGR have teamed up to bring your favorite Christian artists right to your phone. Sign up today and get 10 complementary ringtones!
Tab Country
Did you know CGR has a sister site w/ country guitar tabs? Well we do! Its called Tab Country. It has a great archive with a lot of country tabs.
Rockin Tabs
Are you looking for a site that has rock guitar tabs? Then Rockintabs.com is the place for you. It is a budding site with many rock guitar tabs. Submit your tab today.
Tab Gallery
Tab Gallery has a compilation of christian, rock, and country tabs all in one place. Come visit us.