Guitar Tabs
song title    band name

Join Us Today!

Don't strum alone...
be a part of the largest online Christian music community. Browse thousands of guitar tabs and chat w/ musicians like yourself.


It's Free!

This tab has been rated a 4.29 out of 5 for accuracy. (7 votes)Sorry, but you must be logged in to rate this tab.
Click here to log-in, or you can click here to register.
(Registration is free)

All songs owned by corresponding publishing company. If you make copies of any song on this website, be sure to report your usage to CCLI.
Submitted by: jcrulz

I have tabbed out the whole song unlike the one you currently have.
Including the small riffs

Title: Reflector
Artist: Planet Shakers
Tabbed By Jcrulz


Standard tuning
EADGBE

h - hammer on 
p - pull off 
b - bend string up
r - release bend
/ - slide up
\ - slide down
v - vibrato (sometimes written as ~)
t - right hand tap
x - play 'note' with heavy damping

Hey guys this is the full version of this song. This is one of the greatest 
praise songs. This should be perfect to the song but there might be tiny 
variations because they are too tiny to 
recognise:P
JESUS RULZ!
This is the order of the song:-

Intro x2
Verse x2
Chorus
Riff
Verse x2
Chorus x2
Tag
Soft Chorus
Chorus x3
Ending Tag





Intro Riff(Between each of these powerchords you should be scratching)
E-----------------------------------------------------------------------------|
B-----------------------------------------------------------------------------|
G-----------------------------------------------------------------------------|
D----------6-6------------6/7-6/7------------6-6-----------6/7-6/7------------|
A---7-7----4-4----4-4-----4/5-4/5-----7-7----4-4----4-4----4/5-4/5------------|
E---5-5-----------2-2-----------------5-5-----------2-2-----------------------|

Verse
E-----------------------------------------------------------------------------|
B-----------------------------------------------------------------------------|
G-----------------------------------------------------------------------------|
D----------6-6------------7-7------------6-6-----------6/7-6/7----------------|
A---7-7----4-4----4-4-----5-5-----7-7----4-4----4-4----4/5-4/5----------------|
E---5-5-----------2-2-------------5-5-----------2-2---------------------------|

E-----------------------------------------------------------------------------|
B-----------------------------------------------------------------------------|
G-----------------------------------------------------------------------------|
D----------6-6------------7-7------------6-6-----------6/7-6/7----------------|
A---7-7----4-4----4-4-----5-5-----7-7----4-4----4-4----4/5-4/5----------------|
E---5-5-----------2-2-------------5-5-----------2-2---------------------------|

E-----------------------------------------------------------------------------|
B-----------------------------------------------------------------------------|
G-----------------------------------------------------------------------------|
D----------6-6------------7-7------------6-6-----------6/7-6/7----------------|
A---7-7----4-4----4-4-----5-5-----7-7----4-4----4-4----4/5-4/5----------------|
E---5-5-----------2-2-------------5-5-----------2-2---------------------------|

E-----------------------------------------------------------------------------|
B-----------------------------------------------------------------------------|
G-----------------------------------------------------------------------------|
D----------6-6---------------------7-7-7-7-7-7-7-7-7-7-7-7-7------------------|
A---7-7----4-4----4-4-4-4-4-4-4-4--5-5-5-5-5-5-5-5-5-5-5-5-5------------------|
E---5-5-----------2-2-2-2-2-2-2-2---------------------------------------------|

Chorus (I play the E and D in the root 5 position but it doesnt have to be) 
E-----------------------------------------------------------------------------|
B-----------------------------------------------------------------------------|
G-----------------------------------------------------------------------------|
D-----------------------------------------------------------------------------|
A---7-7-7-7-7-7-7-7-7-7/4-4-4-4-4-4-4-4-4-4---2-2-2-2-2-2-2-2-2-2-------------|
E---5-5-5-5-5-5-5-5-5-5/2-2-2-2-2-2-2-2-2-2---0-0-0-0-0-0-0-0-0-0-------------|

E-----------------------------------------------------------------------------|
B-----------------------------------------------------------------------------|
G-----------------------------------------------------------------------------|
D---/7-7-7-7-7-7-7-7-7-7------------------------------------------------------|
A---/5-5-5-5-5-5-5-5-5-5------------------------------------------------------|
E-----------------------------------------------------------------------------|

Riff
E-----------------------------------------------------------------------------|
B-----------------------------------------------------------------------------|
G-----------------------------------------------------------------------------|
D----------6-6------------6/7-6/7/6/7--------4-6-----------6/7-6/7------------|
A---7-7----4-4----4-4-----4/5-4/5/4/5-7-7----4-6----4-4----4/5-4/7------------|
E---5-5-----------2-2-----------------5-5-----------2-2-----------------------|

Tag
E-----------------------------------------------------------------------------|
B-----------------------------------------------------------------------------|
G-----------------------------------------------------------------------------|
D----------6-6----------6/7-6/7/6/7-------------------------------------------|
A---7-7----4-4----4-4---4/5-4/5/4/5----------------4-4-2h4--------------------|
E---5-5-----------2-2------------------5-5-5-5-4h5---------2-2----------------|

E-----------------------------------------------------------------------------|
B-----------------------------------------------------------------------------|
G-----------------------------------------------------------------------------|
D---------6-6------------7-7-7---------6-6--7-7-7-7-7-7-7-7-7-7-7-7-7---------|
A---7-7---4-4----4-4-----5-5-5---7-7---4-4--5-5-5-5-5-5-5-5-5-5-5-5-5---------|
E---5-5----------2-2-------------5-5------------------------------------------|

Soft Chorus
E---0----2----0----2----0----2------------------------------------------------|
B---0----2----0----3----0----2------------------------------------------------|
G---2----2----1----2----2----2------------------------------------------------|
D---2----4----2----0----2----4-----------------------7-7-7-7-7-7-7-7-7-7-7-7-7|
A---0----4----2---------0----4----2-2-2-2-2-2-2-2----5-5-5-5-5-5-5-5-5-5-5-5-5|
E--------2----0--------------2----0-0-0-0-0-0-0-0-----------------------------|

Ending Tag
E-----------------------------------------------------------------------------|
B-----------------------------------------------------------------------------|
G-----------------------------------------------------------------------------|
D----------6-6----------6/7-6/7/6/7-------------------------------------------|
A---7-7----4-4----4-4---4/5-4/5/4/5----------------4-4-2h4--------------------|
E---5-5-----------2-2------------------5-5-5-5-4h5---------2-2----------------|

E-----------------------------------------------------------------------------|
B-----------------------------------------------------------------------------|
G-----------------------------------------------------------------------------|
D---------6-6-----------7-7-7---------6-6-----------7-7-7---------------------|
A---7-7---4-4----4-4----5-5-5---7-7---4-4----4-4----5-5-5---------------------|
E---5-5----------2-2------------5-5----------2-2------------------------------|

Comments about this tab

supaduk - 2005-08-14

Awesome tab! Keep it up!


davidfong22 - 2005-12-20

Excellent tab..............very accurate


Ruined14 - 2006-02-06

i agree..100%


supaduk - 2006-02-25

ummmm, dude, they're not power chords.......i guess its back to the drawing board, ey?


imaizi - 2006-03-20

Thanks to i can now play in my chapel rock band and they'll no longer be closing it down!!!


Add a comment/correction

Complimentary Christian Ringtones
Dadamobile and CGR have teamed up to bring your favorite Christian artists right to your phone. Sign up today and get 10 complementary ringtones!
Tab Country
Did you know CGR has a sister site w/ country guitar tabs? Well we do! Its called Tab Country. It has a great archive with a lot of country tabs.
Rockin Tabs
Are you looking for a site that has rock guitar tabs? Then Rockintabs.com is the place for you. It is a budding site with many rock guitar tabs. Submit your tab today.
Tab Gallery
Tab Gallery has a compilation of christian, rock, and country tabs all in one place. Come visit us.