Guitar Tabs
song title    band name

Join Us Today!

Don't strum alone...
be a part of the largest online Christian music community. Browse thousands of guitar tabs and chat w/ musicians like yourself.


It's Free!

This tab has been rated a 4.00 out of 5 for accuracy. (1 vote)Sorry, but you must be logged in to rate this tab.
Click here to log-in, or you can click here to register.
(Registration is free)

All songs owned by corresponding publishing company. If you make copies of any song on this website, be sure to report your usage to CCLI.
Submitted by: ariaman

Song: Zero Hour
Artist: East West
Produced by: Dennis McKay
Copyright: 2003 Floodgate Records
Tabbed by: Trevor Kirch(eagleear00@yahoo.com)

Drop B tuning(B F# B E G# C#

Okay, i'm pretty sure that this is very accurate.
It's not a hard song at all, very easy to get the hang of.

Verses:

B---------------------------------------------
F#-0-3-5-7-8-0-3-5-7-8-0-3-5-7-8-0-3-5-7-10---
B---------------------------------------------

Do that a couple of times...

First Chorus

B--8-8-8-8-8-8-8-8-3-3-3-3-3-3-3-8-8-8-8-8-8-8-8-3-3-3-3-3-3-3-0-3-5-5-
F#-8-8-8-8-8-8-8-8-3-3-3-3-3-3-3-8-8-8-8-8-8-8-8-3-3-3-3-3-3-3-0-3-5-5-
B--8-8-8-8-8-8-8-8-3-3-3-3-3-3-3-8-8-8-8-8-8-8-8-3-3-3-3-3-3-3-0-3-5-5-

another verse...

Second Chorus

B--8-8-8-8-8stop-7-7-7-7-7stop-12-12-12-12-12-3-3-3-3-3-
F#-8-8-8-8-8stop-7-7-7-7-7stop-12-12-12-12-12-3-3-3-3-3-
B--8-8-8-8-8stop-7-7-7-7-7stop-12-12-12-12-12-3-3-3-3-3-

a couple times...

Bridge

B--0-7-5-0-5-0-3-0-3-3-5-3-0-
F#-0-7-5-0-5-0-3-0-3-3-5-3-0-
B--0-7-5-0-5-0-3-0-3-3-5-3-0-

then they pick it on the C# string...

C#-0-7-5-0-5-0-3-0-3-3-5-3-0-

then, basically, you just play the second chorus several times, 
without the stops in it.

end on...

B--8-8-8-8-8-
F#-8-8-8-8-8-
B--8-8-8-8-8-

and thats it! its a pretty easy song to learn, and its fun to play.
Questions, comments, corrections are always welcome.

Comments about this tab

ariaman - 2005-01-16

the intro part that is kind of a reverb thing at the very beginning goes like this, i believe:

C#------0---
G#----3---2-
E---2-------

with delay or some sort of effect


ariaman - 2005-01-17

In the bridge, where I put they pick on the C# string, they actually play this:

E-----14-12----12----10----10-10-12-10----
B--12-------12----12----12-------------12-


Add a comment/correction

Complimentary Christian Ringtones
Dadamobile and CGR have teamed up to bring your favorite Christian artists right to your phone. Sign up today and get 10 complementary ringtones!
Tab Country
Did you know CGR has a sister site w/ country guitar tabs? Well we do! Its called Tab Country. It has a great archive with a lot of country tabs.
Rockin Tabs
Are you looking for a site that has rock guitar tabs? Then Rockintabs.com is the place for you. It is a budding site with many rock guitar tabs. Submit your tab today.
Tab Gallery
Tab Gallery has a compilation of christian, rock, and country tabs all in one place. Come visit us.