Guitar Tabs
song title    band name

Join Us Today!

Don't strum alone...
be a part of the largest online Christian music community. Browse thousands of guitar tabs and chat w/ musicians like yourself.


It's Free!

This tab has been rated a 5.00 out of 5 for accuracy. (2 votes)Sorry, but you must be logged in to rate this tab.
Click here to log-in, or you can click here to register.
(Registration is free)

All songs owned by corresponding publishing company. If you make copies of any song on this website, be sure to report your usage to CCLI.
Submitted by: jstush04@aol

Artist: Jars of Clay

Album: (self-titled)

Song: Blind

Translated by: John Stushek
Note: I have loved Jars of Clay ever since I first heard them 
when they first came out and they are an incredibly gifted band. 
I had to have heard and tried to figure out this song about a 
hundred times before i finally got it right (to the best of my 
knowledge). It is a pretty hard song, but if you listen to the 
CD and practice it a whole lot, you'll get it. The names that I 
have given to these chords are not all correct, but I assigned 
them the names that I did just for ease of tab use. Thanks be 
to God for giving those four guys the talent that they have. If 
you have any questions, you can email me at jstush04@aol.com.

   G        C        G        C
e ---0--------0--------0--------0--
B -3--------3--------3--------3----
G -----4--------4--------4---------
D ---------------------------------
A ----------3-----------------3----
E -3-----------------3-------------
   E/Bm7                         Cm A2
e -3-5p30----3-5p30----3-5p30------0---0-
B ---------3---------3---------3-3--0--3-
G ---0----0-0--0----0-0--0----0-0--0--0--
D --4----4----4----4----4----4----4--4---
A ------2---------2---------2----3--0----
E -0---------0---------0-----------------
   E/Bm7                         Cm A2   Cm A2
e -3-5p30----3-5p30----3-5p30------0-------0-----
B ---------3---------3---------3-3--0--3-3--0--3-
G ---0----0-0--0----0-0--0----0-0--0--0-0--0--0-0
D --4----4----4----4----4----4----4--4----4--4---
A ------2---------2---------2----3--0----3--0----
E -0---------0---------0-------------------------
   Cm      B       Bm      Asus7   Cm      B       E/Bm7   Cm
e --------------------------------------0----------------------
B ------3-----4-------3-------3---------------4----------3----3
G ---0-0-0---4--4-4--4--4-4--4--4-4--0-0-0---4--4-4--0--0-0--0-
D --4-4---4-4----4--4----4--2----2--4-4---4-4----4--4--4----4--
A -3-------2-------2-------0-------3-------2----------2----3---
E -------------------------------------------------0-----------

Comments about this tab

jpinoyo717 - 2004-05-04

yeah john! this is jalandoon from cla man. keep up the great work!


jstush04@aol - 2004-10-18

This is to anyone that is reading this tab. if there is anyway that you feel i can make this tab more clear, feel free to post a comment. or just email


Imbey - 2005-09-13

This looks great, but would you be so kind as to add finger numberings? I tried to figure out which finger goes where, but I can't seem to get it. Thanks!


shred - 2006-04-01

this is to the person or any one else who is wanting to know finger positioning. if you go through and practice the chord changes first and get them down solid and then go back through and add the transition notes in between the chords you'll know the correct finger postioning. good luck. shred.


Add a comment/correction

Complimentary Christian Ringtones
Dadamobile and CGR have teamed up to bring your favorite Christian artists right to your phone. Sign up today and get 10 complementary ringtones!
Tab Country
Did you know CGR has a sister site w/ country guitar tabs? Well we do! Its called Tab Country. It has a great archive with a lot of country tabs.
Rockin Tabs
Are you looking for a site that has rock guitar tabs? Then Rockintabs.com is the place for you. It is a budding site with many rock guitar tabs. Submit your tab today.
Tab Gallery
Tab Gallery has a compilation of christian, rock, and country tabs all in one place. Come visit us.