Guitar Tabs
song title    band name

Join Us Today!

Don't strum alone...
be a part of the largest online Christian music community. Browse thousands of guitar tabs and chat w/ musicians like yourself.


It's Free!

This tab has been rated a 4.60 out of 5 for accuracy. (15 votes)Sorry, but you must be logged in to rate this tab.
Click here to log-in, or you can click here to register.
(Registration is free)

All songs owned by corresponding publishing company. If you make copies of any song on this website, be sure to report your usage to CCLI.
Submitted by: cs_otter

----------------------------------------------------
| Chem 6A                                          |
| By: Switchfoot                                   |
| Album: The Legend of Chin                        |
| Tabbed By: Matt Neighbors                        |
|(c)1997 Meadowgreen Music/Sugar Pete Songs/ASCAP  |
----------------------------------------------------

I saw this on the site, and knew an easier way to do
the riffs and knew the chorus and solos, so here it is!

Listen to the CD for palm mutes, and rythms.  I'm
really too lazy to do those here.

Standard Tuning
* = Bend
/ = Slide
h = Hammer On

INTRO AND VERSE: (intro, and 3x verse)
  G        B        C         D
E-----------------------------------------
B-----------------------------------------
G----4*-0-----4*-0------3*-0------2h4-2-0-
D-----------------------------0-0---------
A----------2-2------3-3-------------------
E-3-3-------------------------------------

I&V: (4th time)
  G		B  C  D
E------------------------------|
B---------------4--5--7--------|
G-----4*-0------4--5--7--------|
D---------------4--5--7-(Break)|
A-----------2-2-2--3--5--------|
E-3-3--------------3--5--------|


CHORUS:
  E(m?)  G  E(m?)  Am  C   E  C
E--------------------------------|
B---9---------9------------9--5--|
G---9---------9------------9--5--|
D---9----5----9----7---10--9--5--|
A---7----5----7----7---10--7--3--|
E---7----3----7----5---8---7--3--|

SOLO 1:

E----------------------------------------------
B----------------------------------------------
G-7--7/11----0-2-2h3-0--0h2-0--/7--7-7-7--7/12-
D---------9------------------------7-7-7-------
A----------------------------------------------
E----------------------------------------------

E----------------------------------------------
B----------------------------------------------
G-12-14-14h15-12-12h14-12--10h12-12-10h12------
D--------------------------10h12-12-10h12------
A----------------------------------------------
E---------------------------(x a bunch)--------

E----------------------------|
B----------------------------|
G-12-14-14h15-12-12h14-12-12-|
D-------------------------12-|
A-------------------------10-|
E-------------------------10-|

Chord twice through (G B C D), then back to
verse riff, chorus (hit the last C a few more
times), and then to solo 2 and end.

SOLO 2:
E-3--5-5h7-5--3-3-2-0-2-|-3--5-5h7-5--3-3-2-0-2-3-|
B-3(hold)-----1-1---1---|-3(hold)-----1-1---1---0-|
G-----------------------|-------------------------|
D-----------------------|-------------------------|
A----(repeat 3x)--------|-----(end on)------------|
E-----------------------|-------------------------|

Enjoy!  Any comments or ?'s can be sent to
mneighbors@ezeeweb.com

Comments about this tab

jdwise5509c - 2005-01-07

ummm ya like the palm mutes are like on every one except the first time and it switches from
|---------------------------------------|
|---------------------------------------|
|----XX------4b-0-----3b-0-----2-4-2-0--|
|----XX--------------------00-----------| To
|----XX-0-22------33--------------------|
|33--XX-0-------------------------------|

|--------------------------------------------|
|--------------------------------------------|
|----XX------4b-0-----3b-0------2b(full bend)|
|----XX--------------------00----------------|
|----XX-0-22------33-------------------------|
|33--XX-0------------------------------------|

and ya so....it does thoes like over and over again except fr the intro...ok cool


mtlmouth - 2005-02-07

This is an awesome song, and this is a very good tab. Thanks! :D


mmggppmgp - 2005-04-11

the intro has like tweaked harmonics as u bend it i think its called like that, it has sumthin to do with how you strike the strings, its tight


mmggppmgp - 2005-04-11

its pinch harmonics


Ibanez_online - 2005-09-16

great tab but i think
tha the intro sounds
a little more like this
b:bend p:pulloff
|-------------------------------------------
|-------------------------------------------
|----3bp0----3bp0----2bp0----3h43p0---------
|-------------------------00----------------
|---------22-----33-------------------------
|-33----------------------------------------
but i dont know it just sounds a lttle closer to me.




Chem6Afreak - 2006-09-07

Bount, Bount, Dwui, Da, Dent, Dent, Da , Duh, dent, dint,da, bint, dint, da, na, duh, da.
this songs rocks thanks


GUITAR MASTA - 2007-02-18

nice chem6A freak Ilike that.Oh! and nice tab by the way


GUITAR MASTA - 2007-10-11

were is the courus!!! im so lost!


puppetman360 - 2008-06-25

Nice tab bro! I play this song all the time!!

Jesus Loves You!!


Add a comment/correction

Complimentary Christian Ringtones
Dadamobile and CGR have teamed up to bring your favorite Christian artists right to your phone. Sign up today and get 10 complementary ringtones!
Tab Country
Did you know CGR has a sister site w/ country guitar tabs? Well we do! Its called Tab Country. It has a great archive with a lot of country tabs.
Rockin Tabs
Are you looking for a site that has rock guitar tabs? Then Rockintabs.com is the place for you. It is a budding site with many rock guitar tabs. Submit your tab today.
Tab Gallery
Tab Gallery has a compilation of christian, rock, and country tabs all in one place. Come visit us.