Guitar Tabs
song title    band name

Join Us Today!

Don't strum alone...
be a part of the largest online Christian music community. Browse thousands of guitar tabs and chat w/ musicians like yourself.


It's Free!

This tab has been rated a 2.25 out of 5 for accuracy. (4 votes)Sorry, but you must be logged in to rate this tab.
Click here to log-in, or you can click here to register.
(Registration is free)

All songs owned by corresponding publishing company. If you make copies of any song on this website, be sure to report your usage to CCLI.
Submitted by: Hellfighter

I am adding this in the correct key with the intro solo and the guitar solo

Intro And Verse:
Em  C  G  D/F#

(into BRIDGE hold on C)


BRIDGE:
    D   Em   C    G   G/F#
    D   C2   Em   C

CHORUS
    G   D    Am   C
    G   F    Am   C

Intro Tab

G--12--11--9------9--11--12---
D-------------12--------------

This is played over the Em C G D/F# of the intro, the last time you do it play

G--12--11--9-------------
D-------------12--12--9--

That ends the riff on an Eb wich sounds with the 
Em chord leading into the verse

Now for the solo

G---9--11--11s12--9---11--11s12---11--11s12--s14-14-14--12
D------------------------------12-------------------------

You can repeat this as long as you'd like however it is a good
lead into some off the cuff soloing if you know your scales
Again End on the 12th fret of G-string to go back to chorus to match G chord,
or end onD-string 9th fret to go to Intro/verse to match Em chord

Comments about this tab

CryingNut - 2004-06-27

if anyone knows the correct solo in the middle of this song
i dont think this one is right...(wuts "s")
please post it here or mail it to drunken_imperial@hotmail.com
thank you


CryingNut - 2004-06-29

s is slide
im srry
im used to /

it's still wrong tho


Mexi_strat - 2004-07-10

I think this is the closest i can come to the middle solo part.
It goes a little somethin' like this...

e------------------------------12-15----12----12---------|
B------7-8-----------8-8s12-10-------15----12----10-12---|
G--7s9-----7-----7-9-------------------------------------|
D------------7-9-----------------------------------------|
A--------------------------------------------------------|
E--------------------------------------------------------|

---------------------------10-10--|
-10-8-10-----------8-10-12--------|
------------7s9-11----------------|
---------12-----------------------|
----------------------------------|
----------------------------------|

Feel free to post any corrections.
God Bless ya'll!


Mexi_strat - 2004-07-10

Sorri about the last post, I'll try that again. >.<


E------------------------------12-15----12----12--|
B------7-8-----------8-8s12-10-------15----12-----|
G--7s9-----7-----7-9------------------------------|
D------------7-9----------------------------------|
A-------------------------------------------------|
E-------------------------------------------------|


E----------------------------------10-10--|
B--10-12-10-8-10-----------8-10-12--------|
G-------------------7s9-11----------------|
D----------------12-----------------------|
A-----------------------------------------|
E-----------------------------------------|


Robert_lavigne - 2004-07-29

I play the solo like this. The middle sounds alittle bit off still but it's more accurate then the other version. Other than that it's great.


E--------------------------------12-15-15-14-14-12-12-10-10|
B------7-8-----------8-8s12-10-10--------------------------|
G--7s9-----7-----7-9---------------------------------------|
D------------7-9-------------------------------------------|
A----------------------------------------------------------|
E----------------------------------------------------------|


E----------------------------------10-10--|
B-----12-10-8-10-----------8-10-12--------|
G-----------------7-7s9-11----------------|
D-----------------------------------------|
A-----------------------------------------|


God Bless
E-----------------------------------------|


Taters24 - 2005-02-22

Isn't it C2 all the way through the verse as well as the chorus?


jel_zynth - 2005-04-08

yes, it's indeed a C2


wdougall - 2006-02-04

Hey guys..this is how i did the solo on guitar pro 5.0. It is extremely accurate. Enjoy and God bless!

E Q Q E E E H Q E E
E||--------------------------|-------------------------|
B||--------------------7--8--|-------------------------|
G||--7s--9~----L----L--------|--7~--------L------------|
D||--------------------------|-----------------7s--12--|
A||--------------------------|-------------------------|
E||--------------------------|-------------------------|


Q Q Q Q E S S E E E Q E
--------------------------|---------------------------------|
--------------------8~----|--12--12-12-12--10--10~--L----L--|
--------7~----9~----------|---------------------------------|
--9~----------------------|---------------------------------|
--------------------------|---------------------------------|
--------------------------|---------------------------------|


S E S S E S S E S S E S E E E E E E E E
--12s-15-----------------------------------|-------------------------------|
------------15s-17----12s-15----10s-12~--L-|---L--10--8--10----------------|
-------------------------------------------|--------------------7--7s--9~--|
-------------------------------------------|-------------------------------|
-------------------------------------------|-------------------------------|
-------------------------------------------|-------------------------------|


E Q Q Q E E Q Q Q E
-------------------------------|---------------------------|
-------------------------------|-----15~----15~------------|
--L--11~----12~----14~----16~--|--L------------------------|
-------------------------------|---------------------------|
-------------------------------|---------------------------|
-------------------------------|---------------------------|


Q E Q E E E 4x
|--------------------------||
|---8----7--5----3--5--7---||
|*------------------------*||
|*------------------------*||
|--------------------------||
|--------------------------||




Duration Legend
---------------
W - whole
H - half
Q - quarter
E - 8th
S - 16th
T - 32nd
X - 64th
. - note dotted
|-n-| - n-tuplets


Tablature Legend
----------------
L - tied note (i.e. hold the note before it until the next new note)
x - dead note
g - grace note
(n) - ghost note
> - accentuded note
NH - natural harmonic
AH - artificial harmonic
TH - tapped harmonic
SH - semi harmonic
PH - pitch harmonic
h - hammer on
p - pull off
b - bend
br - bendRelease
pb - preBend
pbr - preBendRelease
brb - bendReleaseBend
\n/ - tremolo bar dip
\n - tremolo bar dive
-/n - tremolo bar Release up
/n\ - tremolo bar inverted dip
/n - tremolo bar return
-\n - tremolo bar Release down
S - shift slide
s - legato slide
/ - slide into from below or out of upwards
\ - slide into from above or out of downwards
~ - vibrato
W - wide vibrato
tr - trill
TP - tremolo picking
T - tapping
S - slap
P - pop
< - fade in
^ - brush up
v - brush down


Add a comment/correction

Complimentary Christian Ringtones
Dadamobile and CGR have teamed up to bring your favorite Christian artists right to your phone. Sign up today and get 10 complementary ringtones!
Tab Country
Did you know CGR has a sister site w/ country guitar tabs? Well we do! Its called Tab Country. It has a great archive with a lot of country tabs.
Rockin Tabs
Are you looking for a site that has rock guitar tabs? Then Rockintabs.com is the place for you. It is a budding site with many rock guitar tabs. Submit your tab today.
Tab Gallery
Tab Gallery has a compilation of christian, rock, and country tabs all in one place. Come visit us.