Guitar Tabs
song title    band name

Join Us Today!

Don't strum alone...
be a part of the largest online Christian music community. Browse thousands of guitar tabs and chat w/ musicians like yourself.


It's Free!

This tab has not yet been rated for accuracy.Sorry, but you must be logged in to rate this tab.
Click here to log-in, or you can click here to register.
(Registration is free)

All songs owned by corresponding publishing company. If you make copies of any song on this website, be sure to report your usage to CCLI.
Submitted by: AnonymousGuy

Skillet, Stand up (from veggie rocks cd)
Dropped C# tuning

I haven't figured out the picking part (the intro) yet, sorry
But the rest goes like this...

Pre-pre-chorus (I didn't know what to call it ;)

     P.M.
F#---------
C#-0-00000-
G#-0-00000-
C#-0-00000- x8


Pre-chorus

F#----8-8-8-----10-10-10-----8-8-8-------3-3-3-
C#-00-8-8-8--00-8--8--8---00-6-6-6--000001-8-8-
G#-00-6-6-6--00-8--8--8---00-6-6-6--000001-8-8-
C#-00-x-x-x--00-x--x--x---00-x-x-x--00000x-x-x- x2

Chorus

F#-----------3------8----8-
C#-0-0-0-0-3-3-0-00-8-00-8-
G#-0-0-0-0-3-1-0-00-6-00-6-
C#-0-0-0-0-3-x-0-00-x-00-x- x2

Verse

F#----------------------------------------
C#-55-3-55-3-55-3-55-00-3-0-3-0-00-3-00-3-
G#-55-3-55-3-55-3-55-00-3-0-3-0-00-3-00-3-
C#-55-3-55-3-55-3-55-00-3-0-3-0-00-3-00-3-
                    
                     (hold out)
F#----------------------------------------
C#-55-3-55-3-55-3-55-7--------------------
G#-55-3-55-3-55-3-55-7--------------------
C#-55-3-55-3-55-3-55-7--------------------

Pre-pre-chorus 
Pre-chorus x1/2
Chorus
Verse x2
Bridge

F#-7-10-12-14-12-10-x3/-10-12-7-10- x2

Intro (picking)Listen to the cd for this 
part they strum a single C# at times

Chorus x3
Pre-chorus x4

That's it. Rock on skillet fans!

Comments about this tab

jesuslova - 2006-02-20

here's the intro/break clean riff thingy:

f# --5------------|
c# ---7-7-5h7-5-7-|
g# ------0--------|
c# -0--8-----5----|


Add a comment/correction

Complimentary Christian Ringtones
Dadamobile and CGR have teamed up to bring your favorite Christian artists right to your phone. Sign up today and get 10 complementary ringtones!
Tab Country
Did you know CGR has a sister site w/ country guitar tabs? Well we do! Its called Tab Country. It has a great archive with a lot of country tabs.
Rockin Tabs
Are you looking for a site that has rock guitar tabs? Then Rockintabs.com is the place for you. It is a budding site with many rock guitar tabs. Submit your tab today.
Tab Gallery
Tab Gallery has a compilation of christian, rock, and country tabs all in one place. Come visit us.