Guitar Tabs
song title    band name

Join Us Today!

Don't strum alone...
be a part of the largest online Christian music community. Browse thousands of guitar tabs and chat w/ musicians like yourself.


It's Free!

This tab has been rated a 4.85 out of 5 for accuracy. (13 votes)Sorry, but you must be logged in to rate this tab.
Click here to log-in, or you can click here to register.
(Registration is free)

All songs owned by corresponding publishing company. If you make copies of any song on this website, be sure to report your usage to CCLI.
Submitted by: Awanabecop

Song:Again
Artist:Kutless
CD:Kutless
Copyright:2002

Drop D Tune!
DADGBE

This is my first tab ever so it should be 100% correct with me!
This is the complete version

Intro

Guitar 1
E----------------------------------------------
B----------------------------------------------
G----------------------------------------------     5x
D-----2----2------2-----2-----2---2------0---
A---0----0----3-------3-----1----1-----0-----
D-0-----0-------0---0-----0-----0-----0-------

Guitar 2 Join on Guitar1 on 2x
E------------------------     4x
B------------------------
G------------------------
D--8-7h8-----------------  
A------------------------
D------------------------

Chorus
E------------------------
B------------------------
G------------------------
D-7--9--9---2--7--7---5--7--7--7---3--3--3--3--3--5--5-----
A-7--7--7---2--2--2---5--5--5--5---3--3--3--3--3--5--5-----  2x
D-7--7--7---2--2--2---5--5--5--5---3--3--3--3--3--5--5-----

Verse
Guitar 1
E----------------------------------------------
B----------------------------------------------
G----------------------------------------------     5x
D-----2----2------2-----2-----2----2----0---0----
A---0----0----3-------3-----1-----1-----0---0----
D-0-----0-------0---0-----0------0------0---0----

Guitar 2 
E------------------------     5x
B------------------------
G------------------------
D--8-7h8-----------------  
A------------------------
D------------------------

Repeat chorus

Bridge
E-------------------------------------------------
B-------------------------------------------------
G-------------------------------------------------
D------------------------0------------------------
A---0--7--0--7--8--7--0--0--7--0--7--8--7--0------
D-0----------------------0------------------------

E------------------------------------------------
B------------------------------------------
G---------------------------------------------
D------------------------------------------ 
A-----------------------------------------                      
D-7--8--7--5--7--5--7--0---3-3-3-3--5-5-5-5-6x---------                    

6th time add this 
A-------------------------3--3--7--7-
D-7--8--7--5--7--5--7--0--3--3--7--7-


      E--------------------------------
      B--------------------------------
      G--------------------------------  3x
-->   D-7--8--7--5--7--5--7--0---------
      A-7--8--7--5--7--5--7--0---------
      D-7--8--7--5--7--5--7--0---------
                   2x when these two parts are finished  
      E--------------------------------
      B--------------------------------
      G--------------------------------
-->   D-3--3--3--3--5--5--5--5---------
      A-3--3--3--3--5--5--5--5---------
      D-3--3--3--3--5--5--5--5---------

Repeat Chorus

Outro
      E--------------------------------
      B--------------------------------
      G--------------------------------  3x
-->   D-7--8--7--5--7--5--7--0---------
      A-7--8--7--5--7--5--7--0---------
      D-7--8--7--5--7--5--7--0---------
                   1x when these two parts are finished  
      E--------------------------------
      B--------------------------------
      G--------------------------------
-->   D-3--3--3--3--5--5--5--5---------
      A-3--3--3--3--5--5--5--5---------
      D-3--3--3--3--5--5--5--5---------

In Christ Josiah if you want any Kutless tabs I'd be gald to email them 
to you if I know them.
Awanabecop@aol.com

Comments about this tab

jayemm87 - 2004-12-18

nice job. I really think you did an excellent job with an excellent song by an excellent band.


Awanabecop - 2005-01-04

i forgot to add at this part of the bridge it's palm mute!

pm D-7--8--7--5--7--5--7--0---3-3-3-3--5-5-5-5-6x---------

6th time add this
A------------------------- off palm mute --3--3--7--7-
D-7--8--7--5--7--5--7--0-- --3--3--7--7-


ryan_grooms22 - 2005-05-25

you did an awesome job
god bless
-ryan_grooms22


Rock_4_god_365 - 2005-06-15

awesome job on an awesome some! keep tabbin' man


stupidevil - 2007-04-13

Nice Dude! Nice! Keep Up The GOOD Work! GOD BLESS!


Add a comment/correction

Complimentary Christian Ringtones
Dadamobile and CGR have teamed up to bring your favorite Christian artists right to your phone. Sign up today and get 10 complementary ringtones!
Tab Country
Did you know CGR has a sister site w/ country guitar tabs? Well we do! Its called Tab Country. It has a great archive with a lot of country tabs.
Rockin Tabs
Are you looking for a site that has rock guitar tabs? Then Rockintabs.com is the place for you. It is a budding site with many rock guitar tabs. Submit your tab today.
Tab Gallery
Tab Gallery has a compilation of christian, rock, and country tabs all in one place. Come visit us.