Guitar Tabs
song title    band name

Join Us Today!

Don't strum alone...
be a part of the largest online Christian music community. Browse thousands of guitar tabs and chat w/ musicians like yourself.


It's Free!

This tab has been rated a 4.74 out of 5 for accuracy. (42 votes)Sorry, but you must be logged in to rate this tab.
Click here to log-in, or you can click here to register.
(Registration is free)

All songs owned by corresponding publishing company. If you make copies of any song on this website, be sure to report your usage to CCLI.
Submitted by: Softer2me

song: Sea of Faces
Artist: Kutless
CD: Sea of Faces
Written by: Jon Micha Sumrall, Kyle Mitchell, James Mead,
            Ryan Shrout, and Aaron Sprinkle
Copyright: 2004
Tabbed by: Extreme_je5u5freak@yahoo.com (softer2me)

           G                  Cadd9                 Em                    D
      3 2 0 0 3 3          x 3 2 0 3 3          0 2 2 0 0 0          x x 0 2 3 2

          Am
      x 0 2 2 1 0

Acoustic (E A D G B E)
Distorted Electric (D A D G B E)
Clean Electric (D A D G B E)

Intro

  G              Cadd9         Em             Cadd9
|---6--5--6----|-------------|---6--5--6----|-10-11--10--8-------------|
|---6--6--6----|-------------|---6--6--6----|---------------11----6----|
|--------------|-------------|--------------|-10-12--10--8---7----7----|
|--------------|-------------|--------------|--------------------------|
|--------------|-------------|--------------|--------------------------|
|--------------|-------------|--------------|--------------------------|


   Verse 
  G           Cadd9         Em          Cadd9


Pre-Verse/Chorus
  D     Em   Cadd9
|--------------|--------------|
|-6--6--8-8--4-|-4----4-4-4-4-|
|-5--5--7-7--3-|-3----3-3-3-3-|
|-3--3--5-5--1-|-1----1-1-1-1-|
|-3--3--5-5--1-|-1----1-1-1-1-|
|-3--3--5-5--1-|-1----1-1-1-1-|


    G                      D
||-----------------------|------------------------|
||o----------------------|------------------------|
||--3-3--3--3-3--3--3--3-|------------------------|
||--3-3--3--3-3--3--3--3-|-3-3--3--3-3--3--3--3---|
||o-1-1--1--1-1--1--1--1-|-3-3--3--3-3--3--3--3---|
||-----------------------|-3-3--3--3-3--3--3--3---|


  Cadd9          Em      D
|--------------|-------------------------||
|--------------|------------------------o||
|--------------|-------------------------||
|-1-1--x-1-----|-5-5--5--5-3--3--3--3----||
|-1-1--x-1-----|-5-5--5--5-3--3--3--3---o||
|-1-1--x-1-----|-5-5--5--5-3--3--3--3----||


Interlude
  G              Cadd9         Em             Cadd9
 Piano Transcription
|---6--5--6----|-------------|---6--5--6----|-10-11--10--8-------------|
|---6--6--6----|-------------|---6--6--6----|---------------11----6----|
|--------------|-------------|--------------|-10-12--10--8---7----7----|
|--------------|-------------|--------------|--------------------------|
|--------------|-------------|--------------|--------------------------|
|--------------|-------------|--------------|--------------------------|


Verse 2
    G                  Cadd9
   Clean Electric
||-------------------|--------------------|
||o------------------|-----------1--3-----|
||-----3--2---3------|------3-2-----------|
||---------------3---|-(3)----------------|
||o-1----------------|--------------------|
||-------------------|--------------------|


  Em                  Cadd9
|-------------------|-----------------------||
|-(3)---------3-----|-(3)------------------o||
|-----3-------------|-----3-----------------||
|--------3----------|--------3----(3)-------||
|-------------------|----------------------o||
|-------------------|-----------------------||


Pre-Verse 2
  D     Em   Cadd9          D     Em   Cadd9                                          
|--------------|----------|--------------|-----------------|
|-6--6--8-8--4-|-4--------|-6--6--8-8--4-|-4-4-4-4-4-4-4-4-|
|-5--5--7-7--3-|-3--------|-5--5--7-7--3-|-3-3-3-3-3-3-3-3-|
|-3--3--5-5--1-|-1--------|-3--3--5-5--1-|-1-1-1-1-1-1-1-1-|
|-3--3--5-5--1-|-1--------|-3--3--5-5--1-|-1-1-1-1-1-1-1-1-|
|-3--3--5-5--1-|-1--------|-3--3--5-5--1-|-1-1-1-1-1-1-1-1-|


Chorus 2
    G                      D
||-----------------------|-----------------------|
||o----------------------|-----------------------|
||--3-3--3--3-3--3--3--3-|-----------------------|
||--3-3--3--3-3--3--3--3-|-3-3--3--3-3--3--3--3--|
||o-1-1--1--1-1--1--1--1-|-3-3--3--3-3--3--3--3--|
||-----------------------|-3-3--3--3-3--3--3--3--|


  Cadd9          Em      D
|--------------|-------------------------||
|--------------|------------------------o||
|--------------|-------------------------||
|-1-1--x-1-----|-5-5--5--5-3--3--3--3----||
|-1-1--x-1-----|-5-5--5--5-3--3--3--3---o||
|-1-1--x-1-----|-5-5--5--5-3--3--3--3----||


Bridge

  String transcription
|----------|--------------|----------|-----------|
|-3--------|-(3)----------|-4--------|-(4)-------|
|-3--------|-(3)----------|-3--------|-(3)-------|
|-5--------|-(5)----------|-5--------|-(5)-------|
|-5--------|-(5)----------|-6--------|-(6)-------|
|----------|--------------|----------|-----------|

  Em                     G
  Distorted Electric
|----------------------|-----------------------|
|----------------------|-----------------------|
|----------------------|-3-3--3--3-3--3--3--3--|
|-5-5--5--5-5--5--5--5-|-3-3--3--3-3--3--3--3--|
|-5-5--5--5-5--5--5--5-|-1-1--1--1-1--1--1--1--|
|-5-5--5--5-5--5--5--5-|-----------------------|


  Am                     Cadd9     D
|----------------------|-------------------------|
|----------------------|-------------------------|
|-5-5--5--5-5--5--5--5-|-------------------------|
|-5-5--5--5-5--5--5--5-|-1-1--1--1-3--3--3--3----|
|-3-3--3--3-3--3--3--3-|-1-1--1--1-3--3--3--3----|
|----------------------|-1-1--1--1-3--3--3--3----|


 Out-Chorus
  G           D             Cadd9     Em  D


    G                      D
||-----------------------|-----------------------|
||o----------------------|-----------------------|
||--3-3--3--3-3--3--3--3-|-----------------------|
||--3-3--3--3-3--3--3--3-|-3-3--3--3-3--3--3--3--|
||o-1-1--1--1-1--1--1--1-|-3-3--3--3-3--3--3--3--|
||-----------------------|-3-3--3--3-3--3--3--3--|


  Cadd9          Em      D               3x                                     
|--------------|-------------------------||
|--------------|------------------------o||
|--------------|-------------------------||
|-1-1--x-1-----|-5-5--5--5-3--3--3--3----||
|-1-1--x-1-----|-5-5--5--5-3--3--3--3---o||
|-1-1--x-1-----|-5-5--5--5-3--3--3--3----||


 Outro
  Am                     Cadd9   D              G                                              
|----------------------|----------------------|----------|
|----------------------|----------------------|----------|
|-5-5--5--5-5--5--5--5-|----------------------|-3--------|
|-5-5--5--5-5--5--5--5-|-1-1--1--1-3--3--3--3-|-3--------|
|-3-3--3--3-3--3--3--3-|-1-1--1--1-3--3--3--3-|-1--------|
|----------------------|-1-1--1--1-3--3--3--3-|----------|


***************************************************************************************
* Generated using Power Tab Editor by Brad Larsen - http://powertab.guitarnetwork.org *
***************************************************************************************
Ok.... this Tab is really good! But, it's in the wrong Key. see what you can make 
out of it... give it a try and see if it helps ya out at all.  josh-rock

Comments about this tab

Softer2me - 2004-05-04

Awwww Man! I completely forgot to add a very important piece of info. The chords (and chords only) are all relative to a CAPO ON THE THIRD FRET!


poetguitardude - 2004-05-14

I saw Kutless live and he used those chords but he had a capo on the 4th fret, i havent' played yours so i do'nt know if he had his guitar tuned down or something


Softer2me - 2004-05-18

Most likely he had his guitar tuned down a step, seeing as how they play most of there songs in drop C.


Softer2me - 2004-05-18

Most likely he had his guitar tuned down a step, seeing as how they play most of there songs in drop C.


josh-rock - 2004-05-18

actually kutless plays most of the "sea of Faces" song in Drop C#.... and their self title is in drop D


taylor played - 2004-06-24

i saw kutless last week in Ohio. this song is really what got me hooked. my friend who is a youth pastor loaned me a dvd with the video for sea of faces on it. the acoustic part is in standard E tuning with the capo on the third fret. well, thats all for now... see ya!


matthewlozada - 2004-08-19

Actually, yeah, I'm only 14 and I've only been playing for a little over a year so correct me if I'm wrong, but the capo on the 3rd fret made it sound ALOT better. Well, this tab has blessed me alot and I'm hoping to lead our FCA group using this tab so feel special :) lol... Great job, excellent tab and God bless you and your work.


†Crazed-Rocker† - 2004-08-23

i wish people would just put the words with the chords and the tabs.....it just makes it a whole lot easier to play...this tab is really good though, Rock On


sanctusfan14 - 2004-08-28

they can't put words because of copyright stuff, pretty annoying.......


JesusFreak2009 - 2004-09-04

Yeah, I wish they would put the words with the tab too, its stupid that they can't. O well I think there are some sights that you can get the lyrics for the songs.


Kappa - 2004-09-17

Hey everyone, When they play "Live" they are tuned down 1/2 step, so they Capo on the 4th fret. When you listen to the CD, in normal tuning(EADGBE) Capo on the 3rd fret and it's the same! Good Luck with the Playing and Praise GOD!!!


ching - 2004-09-26

this song is great. if you want the words with the chords you can go to my favortie gutiar tab site: www.ultimate-guitar.com and type in the song title. they only have the words with the chords not the tabs but it should help out a little. God Bless.


Soccer Bob - 2005-01-04

Ok i have a question... If theres a capo on the 3rd fret.. how do u play the chords? wouldn't u have to move in front of the capo? so if u do that.. how do u play them?


LauHer - 2005-01-06

cAN SOMEBODY PUT THE LYRIC PLEASE?


kutlessrocks - 2005-01-12

here's the song with the lyrics.

Sea Of Faces - Kutless
(capo 3rd fret)
Intro
G C2 Em C2
Verse
G C2 Em
I see the city lights all around me
C G
Everyone's obscure
C2 Em
Ten million people each with their problems
C
Why should anyone care

Pre Chorus
D Em C2
And in Your eyes I can see
G Dsus C2
I am not just a man, vastly lost in this world
Em7 Dsus G
Lost in a Sea of Faces
Dsus C2
Your body's the bread, Your blood is the wine
Em7 Dsus
Because you traded Your life for mine

G C2 Em C2

Verse 2
G C2 Em
Sometimes my life it feels so trivial
C G
Immersed in the greatness of space
C2 Em
Yet somehow you still find the time for me
C
It's then You show me Your Love

Pre Chorus
D Em C2
And in Your eyes I can see
And In Your arms I will be - 2nd time
G Dsus C2
I am not just a man, vastly lost in this world
Em7 Dsus G
Lost in a Sea of Faces
Dsus C2
Your body's the bread, Your blood is the wine
Em7 Dsus
Because you traded Your life for mine
Verse 3
If only my one heart
Was all you'd gain from all it cost
Em G
Well I know you would have still been a man
A2
With a reason
C D G
To willingly offer your life

Chorus 2X
A2 C2 D G
Just one in a million faces


Rthomas - 2005-01-12

well soccer bob when they added the capo they had also if you read above post tuned down so you would play the cord as you normaly would but under the capo... if im wrong sorry but that only makes sence to me... also btw only been playing for 2 weeks and i am most defninatly probly wrong but if not go me and its a great song im on my way to learning it


GLO28 - 2005-01-16

yeh you're right..like for example,when you play an open G chord with a capo,you would play it on the second fret below the capo...and also I think the EM should be an EM7,and I think mabey the D should be a Dsus2 I'm not sure though...to me it sounds better like that,correct if i'm wrong...


hanspheffercorn - 2005-01-22

for the first 2 lines of verse 3, do you just stay on Dsus the whole time? or do you change chords during there?


sutty11 - 2005-01-29

so where's the powertab file?


ltd_tour - 2005-02-14

Hi everyone I have seen Kutless live 4 times and i have two different dvds with their video and well it is definately capo 3. and i know the chords r right because the last time I saw them at Teen Manias extreme Summer Camps I was within ten feet or less and saw everything so good tab capo 3.


David wood - 2005-03-11

Can some one please tab some of the songs off the new album "strong tower"
thank you
your brother in christ
David


dandesmond - 2005-03-15

This is a good tab and is soooo right! I watched the music video and it is played like this!¬ Yay


rock4christ08 - 2005-03-28

hey davidwood man, i love Strong Tower so much....i'll start tabbing 'em for ya.
your bro in Christ, ray


coolbeans5627 - 2005-04-14

hey guys,
I really think it's kind of stupid that we're fighting over where to put a capo!!! I mean... if you're gonna fight, fight over something worthwhile. I don't know who's right or wrong... I think Kutless plays it two seperate ways. In the music video they play it with a capo @ 3, but I just saw them live 2 days ago. And I was 4 feet from the stage.... a small stage mind you so I could see exactly what they were playing. It was at a small concert showcase thing at the 'GMA Awards Week' and Jon Micah definately was playing it with a capo at 4. the other guys were playing in a dropped tuning w/o a capo. So I'd say either way works.... just depends on if your in Eb tuning or if your in standard. They both sound the exact same, am I right?
Rock On \m/(oo)\m/
-Jeff


RelientonK33 - 2005-05-16

wow, i am like in love with this song. i liked this only one song by kutless and only kind of liked it, i saw them with toby mac, hawk nelson, and audio a, and they were amazing!!!!!! i really like them now, this is perfect if you put the capo on 3rd fret then it sounds exact w/ the song


ryan_grooms22 - 2005-05-28

thanks it's extremely awesome!!!
god bless
-ryan_grooms22


mmggppmgp - 2005-07-01

fershizzle!?!?!?!?!

--weirdo


jake_15 - 2005-07-07

hey yall
i think this is an awsome tab....but i think the Em sound better as an Em7.....but thats just my personal opinian(i spelled that wrong i know)...i wrote out the words to the song and tried to figur out the chords myself....but it didnt work, so i came here and went to the highes rated tab for sea of faces and found this one....its a really good tab...good job who ever tabed it
peace out

-jake


GodMusic395 - 2005-07-09

looking for st. clair county mi resident who plays guitar for my rock band if your interested e-mail me at GodMusic395@aol.com


lone_wanderer - 2005-09-19

there have been requests for more tabs from strong tower, so i'll see what i can do. awesome tab, though, dude. - colton


Hedied4me - 2005-10-18

Hey kutlessrock,
Thank you so much I needed the lyrics and chords. My sister will be so excited that I can play a Kutless song.


Hedied4me - 2005-10-18

Oh Sorry I mean kutlessrocks :-)

<>< Joel


Vatman - 2005-12-18

great job on this tab


FCC_GUITAR - 2006-04-15

woot, way to go man, sweetness tab! keep rockin for God!!!


Alcantar - 2006-10-14

cool


the strat guy - 2006-12-28

I think your Em should be a what I think is a Emaj E---
A-2-
D-2-
G---
B-3-
e-3-


the strat guy - 2007-01-05

Whoops I made a mistake in the Sea of Faces album it sound like they use the Em Chord but I was listening to the Live in Portland wich they use the Em7
Chord


Add a comment/correction

Complimentary Christian Ringtones
Dadamobile and CGR have teamed up to bring your favorite Christian artists right to your phone. Sign up today and get 10 complementary ringtones!
Tab Country
Did you know CGR has a sister site w/ country guitar tabs? Well we do! Its called Tab Country. It has a great archive with a lot of country tabs.
Rockin Tabs
Are you looking for a site that has rock guitar tabs? Then Rockintabs.com is the place for you. It is a budding site with many rock guitar tabs. Submit your tab today.
Tab Gallery
Tab Gallery has a compilation of christian, rock, and country tabs all in one place. Come visit us.