Guitar Tabs
song title    band name

Join Us Today!

Don't strum alone...
be a part of the largest online Christian music community. Browse thousands of guitar tabs and chat w/ musicians like yourself.


It's Free!

This tab has not yet been rated for accuracy.Sorry, but you must be logged in to rate this tab.
Click here to log-in, or you can click here to register.
(Registration is free)

All songs owned by corresponding publishing company. If you make copies of any song on this website, be sure to report your usage to CCLI.
Submitted by: big_old_baloo

----------------------------------------------------------
Vroom - I Can't Stand Another Minute Here
----------------------------------------------------------

.= Palm mute

Intro
e|--------------------------------------------------
B|--------------------------------------------------
G|-------------------------------------11--11--11---
D|9----5----7----4----9----5----7------x---x---x----
A|9----5----7----4----9----5----7------9---9---9----
E|7777733333555552222277777333335-------------------
   .... .... .... .... .... ....
Verse
e|---------------------------------
B|---------------------------------
G|----------------------11---------
D|-9--5--7--4--9--5--7--x----------
A|-9--5--7--4--9--5--7--9----------
E|-7--3--5--2--7--3--5-------------

Bridge
e|---------------------------------
B|---------------------------------
G|---------------------------------
D|--9------------------------------
A|--9------------------------------
E|--7------------------------------

Pre Chorus
e|---------------------------------
B|---------------------------------
G|--7-----7------------------------
D|--7-5-9-7-7----------------------
A|--5-5-9-5-7----------------------
E|----3-7---5----------------------

Chorus
e|-x-x-----------------------------
B|-x-x-----------------------------
G|-x-x-----7-----------------------
D|-x-x-5\9-7-7---------------------
A|-x-x-5\9-5-7---------------------
E|-x-x-3\7---5---------------------





Manipulated verse
e|-------------------------------------------
B|-------------------------------------------
G|--------------------------------111111-----
D|-4\999---5\777---4\999---5\777--x-x-x------
A|-4\999---5\777---4\999---5\777--9-9-9------
E|-2\777---3\555---2\777---3\555-------------


Some one should really spend the time to figure out the solo to this
great song. Too bad that person isn't me. 

Second guitar during solo
e|-----------------------------
B|-----------------------------
G|-------7---------------------
D|---5-9-7-7-------------------
A|---5-9-5-7-------------------
E|---3-7---5-------------------

Cool thing after the solo
e|----------------------------------------
B|------10-----10-----10-----10-----------
G|--7------7------7-9----7----------------
D|----7------9-------------9--------------
A|----------------------------------------
E|----------------------------------------

Cool thing at the end of the other cool thing.
e|-------------------------------------------------
B|-------------------------------------------------
G|--11-15--17--------------------------------------
D|--x--x----x--------------------------------------
A|--9--13--15--------------------------------------
E|-------------------------------------------------

Song Order

Intro
Verse
Bridge
Pre Chorus x3
Chorus x8
Verse 
Manipulated verse
Bridge
Pre Chorus x3
Chorus x6
Guitar two thing once
Chorus during solo x4
Cool thing 
Cool thing at the end of the cool thing 
Chorus 

Comments about this tab

No comments/corrections found. Add your own

Complimentary Christian Ringtones
Dadamobile and CGR have teamed up to bring your favorite Christian artists right to your phone. Sign up today and get 10 complementary ringtones!
Tab Country
Did you know CGR has a sister site w/ country guitar tabs? Well we do! Its called Tab Country. It has a great archive with a lot of country tabs.
Rockin Tabs
Are you looking for a site that has rock guitar tabs? Then Rockintabs.com is the place for you. It is a budding site with many rock guitar tabs. Submit your tab today.
Tab Gallery
Tab Gallery has a compilation of christian, rock, and country tabs all in one place. Come visit us.