Guitar Tabs
song title    band name

Join Us Today!

Don't strum alone...
be a part of the largest online Christian music community. Browse thousands of guitar tabs and chat w/ musicians like yourself.


It's Free!

This tab has been rated a 5.00 out of 5 for accuracy. (16 votes)Sorry, but you must be logged in to rate this tab.
Click here to log-in, or you can click here to register.
(Registration is free)

All songs owned by corresponding publishing company. If you make copies of any song on this website, be sure to report your usage to CCLI.
Submitted by: Fast_Fingarz

Song:  Its like me
Artist:  Kutless
Album:  Sea of Faces

Tabbed by ear by:  John Catlin

This song has a cool message and does use two different guitar parts.  The 
Rhythm buitar (Gtr. 2) has the aspects of the song with are vital to the melody 
and musical structure.  You can play this song without both guitars . . . just 
drop the first guitar, lol.  The tuning on both guitars is a drop Db, like most 
of their new songs, Im finding out.  Have fun.

	*Listen carefully to the recording to get the timing right.

Im positive this entire TAB is at least 94% accurate to the recording.  Please 
rate and give comments.

		Intro:
	Gtr. 1
|-5-5----------5-5--------------------------------------------------
|-----8-7--7/8-----8-7--7/8\7-5-7^7.3----8-5-5-5h7-7/8\7--7-8-7-5---
|-------------------------------------7---------------------------7-
|-------------------------------------------------------------------
|-------------------------------------------------------------------
|-------------------------------------------------------------------
|	Gtr. 2
|-------------------------------------------------------------------
|-------------------------------------------------------------------
|--------------5-5-5-5-------------------5-5---5-5----------------5-
|-0-0-0--0-0---5-5-5-5---5-5-5-5--5-5-5--5-5---5-5--0-0-0---0-0---5-
|-0-0-0--0-0---3-3-3-3---5-5-5-5--5-5-5--3-3---3-3--0-0-0---0-0---3-
|-0-0-0--0-0-------------5-5-5-5--5-5-5-------------0-0-0---0-0-----


		Verses:
	Gtr. 1
|----------------0------0-----------------0------0-----------------------0------
|----------------5------5-----------------5------5-----------------------5------
|----------------7------7--5-5-5----------7------7---5-4-------5-4-------7------
|-------5-5-7----7------7--5-5-5-5-5-7----7------7-------7\5-------7\5---7------
|-------5-5-5--------------3-3-3-5-5-5------------------------------------------
|-------5-5-5--------------------5-5-5------------------------------------------
|	Gtr. 2
|-------------------------------------------------------------------------------
|-------------------------------------------------------------------------------
|-5-5-5--------------------5-5-5--------------------------5-5-5-----------------
|-5-5-5-5-5-7-0-0-0--0-0-0-5-5-5-5-5-7-0-0-0--0-0-0-7-7-7-5-5-5-5-5-7-0-0-0--0-0
|-3-3-3-5-5-5-0-0-0--0-0-0-3-3-3-5-5-5-0-0-0--0-0-0-7-7-7-3-3-3-5-5-5-0-0-0--0-0
|-------5-5-5-0-0-0--0-0-0-------5-5-5-0-0-0--0-0-0-7-7-7-------5-5-5-0-0-0--0-0

	
		Chorus:  
	Gtr. 1
|---------------------------------------------------------------------
|---------------8-8-8--8-8-8-----------------------8-8-8--8-8-8-------
|-7-7-7--5-5-5--7-7-7--7-7-7--7-7-7--7-7-7--5-5-5--7-7-7--7-7-7--7-7-7
|-7-7-7--5-5-5--5-5-5--5-5-5--7-7-7--7-7-7--5-5-5--5-5-5--5-5-5--7-7-7
|-5-5-5--3-3-3----------------5-5-5--5-5-5--3-3-3----------------5-5-5
|---------------------------------------------------------------------
|	Gtr. 2
|---------------------------------------------------------------------
|---------------------------------------------------------------------
|--------5-5-5---------5-5-5----------------5-5-5---------5-5-5-------
|-0-0-0--5-5-5--5-5-5--5-5-5--0-0-0--0-0-0--5-5-5--5-5-5--5-5-5--0-0-0
|-0-0-0--3-3-3--5-5-5--3-3-3--0-0-0--0-0-0--3-3-3--5-5-5--3-3-3--0-0-0
|-0-0-0---------5-5-5---------0-0-0--0-0-0---------5-5-5---------0-0-0


		Bridge:
	Gtr. 1				
|-----------------------------------------
|--5*---5*---5*---------5*---5*---5*---5*-	
|--7*---4----5*---------7*---4*---5*---7*-
|--7*---5*---7*---------7*---5*---7*---7*-	
|--5*---3*---7*-5-5-7-7-5*---3*---7*---5*-	
|---------------5-5-7-7-------------------	
               |---PM--|


		Outro:
	Gtr. 1
|-5-5----------5-5--------------------------------------------------
|-----8-7--7/8-----8-7--7/8\7-5-7^7.3----8-5-5-5h7-7/8\7--7-8-7-5---
|-------------------------------------7---------------------------7-
|-------------------------------------------------------------------
|-------------------------------------------------------------------
|-------------------------------------------------------------------
|	Gtr. 2
|-------------------------------------------------------------------
|-------------------------------------------------------------------
|--------------5-5-5-5-------------------5-5-5-5-5----------------5-
|-0-0-0--0-0---5-5-5-5---5-5-5-5--5-5-5--5-5-5-5-5--0-0-0---0-0---5-
|-0-0-0--0-0---3-3-3-3---5-5-5-5--5-5-5--3-3-3-3-3--0-0-0---0-0---3-
|-0-0-0--0-0-------------5-5-5-5--5-5-5-------------0-0-0---0-0-----


Order:
	Intro
	Verse1
	Chorus
	Verse2
	Chorus
	Bridge
	Outro

Please, if you are registered, rate this TAB and give me some comments so I can 
know what you think.

CGR:  FastFingarz
Email:  Catfish1988@juno.com

Love and Peace

Comments about this tab

Timberwolf - 2004-06-19

Good Job!It's exactly right!


goldennight3 - 2004-10-12

This song is perfectly correct. Nice ear!


stephfh07 - 2005-10-23

is it in drop d tuning?


fireproof101 - 2005-11-22

drop Db


Add a comment/correction

Complimentary Christian Ringtones
Dadamobile and CGR have teamed up to bring your favorite Christian artists right to your phone. Sign up today and get 10 complementary ringtones!
Tab Country
Did you know CGR has a sister site w/ country guitar tabs? Well we do! Its called Tab Country. It has a great archive with a lot of country tabs.
Rockin Tabs
Are you looking for a site that has rock guitar tabs? Then Rockintabs.com is the place for you. It is a budding site with many rock guitar tabs. Submit your tab today.
Tab Gallery
Tab Gallery has a compilation of christian, rock, and country tabs all in one place. Come visit us.