Guitar Tabs
song title    band name

Join Us Today!

Don't strum alone...
be a part of the largest online Christian music community. Browse thousands of guitar tabs and chat w/ musicians like yourself.


It's Free!

This tab has been rated a 4.63 out of 5 for accuracy. (8 votes)Sorry, but you must be logged in to rate this tab.
Click here to log-in, or you can click here to register.
(Registration is free)

All songs owned by corresponding publishing company. If you make copies of any song on this website, be sure to report your usage to CCLI.
Submitted by: Fast_Fingarz

Song:  Let you in 
Artist:  Kutless
Album:  Sea of Faces

Tabbed by ear by:  John Catlin


This song is essentailly three dual guitar lines (verse line, pre-chorus and 
chorus lines) plus a musical bridge.  The tunings must both be Drop Db (Db Ab 
Db Gb Bb Eb).  It is possible to play this song with one guitar, however.  Just 
play the Gtr. 1 intro and then the entire Gtr. 2 part after that and its sounds 
close enough.

	*I am absolutely sure that verses and the intro are at least 98% 
         correct.  
	*The Bridge is close enough to sound good.  Comments wanted.
	*The pre-chorus and chorus are also close enough to sound good, but Im 
         sure are different in some way.  Comments wanted.

	*NOTE*
	--> I've posted enough of the guitar lines to give you the idea, you'll 
            have to play some of these TAB lins a few times to make it accurate 
            to the CD recording.


		Intro:

	Gtr. 1
|----------------------------------------------------
|----------------------------------------------------
|-7-7--2-2--3-3--3-3--3333--7-7--2-2--3-3--3-3--3333-
|-7-7--2-2--3-3--3-3--3333--7-7--2-2--3-3--3-3--3333-
|----------------------------------------------------
|----------------------------------------------------
   PM   PM   PM   PM   PM    PM   PM   PM   PM   PM


		Verses:

	Gtr. 1
|-----------------------------------------------------------------------------
|-----------------------------------------------------------------------------
|-7-7--2-2--3-3--3-3--3333--7-7--2-2--3-3--3-3--3333--7-7--2-2--3-3--3-3--3333
|-7-7--2-2--3-3--3-3--3333--7-7--2-2--3-3--3-3--3333--7-7--2-2--3-3--3-3--3333
|-----------------------------------------------------------------------------
|-----------------------------------------------------------------------------
|  PM   PM   PM   PM   PM    PM   PM   PM   PM   PM    PM   PM   PM   PM   PM  
|	Gtr. 2
|-----------------------------------------------------------------------------
|-----------------------------------------------------------------------------
|-----------------------------------------------------------------------------
|-----------------------------------------------------------------------------
|-0-0--7-7--8-8--8-8--8888--0-0--7-7--8-8--8-8--8888--0-0--7-7--8-8--8-8--8888
|-0-0--7-7--8-8--8-8--8888--0-0--7-7--8-8--8-8--8888--0-0--7-7--8-8--8-8--8888
|  PM   PM   PM   PM   PM    PM   PM   PM   PM   PM    PM   PM   PM   PM   PM  

	Gtr. 1
|-------------------------
|-------------------------
|-7-7--2-2--3-3--3-3--3333
|-7-7--2-2--3-3--3-3--3333
|-------------------------
|-------------------------
|  PM   PM   PM   PM   PM  
|	Gtr. 2
|-------------------------
|-------------------------
|-------------------------
|-------------------------
|-0-0--7-7--3-3--3-3--5/77
|-0-0--7-7--3-3--3-3--5/77
|  PM   PM   PM   PM   PM


		Pre-chorus:

	Gtr. 1 & 2
|-----------------------------------------------------------------------------
|-----------------------------------------------------------------------------
|-7-7--9-9--10---10-----10--7-7--9-9--10---10-----10--7-7--9-9--10---10-----10
|-0-0--7-7--8-8--8-8----10--0-0--7-7--8-8--8-8----10--0-0--7-7--8-8--8-8----10
|-0-0--7-7--8-8--8-8--8888--0-0--7-7--8-8--8-8--8888--0-0--7-7--8-8--8-8--8888
|-0-0--7-7--8-8--8-8--8888--0-0--7-7--8-8--8-8--8888--0-0--7-7--8-8--8-8--8888

	Gtr. 1 & 2
|-------------------------
|-------------------------
|-7-7--5-5--5-5--5-5--7777
|-0-0--7-7--3-3--3-3--5555
|-0-0--7-7--3-3--3-3--3333
|-0-0--7-7--3-3--3-3--3333

		Chorus:

	*For first guitar, place fingers in the form provided and pluck on x's 
         and adjust for new fret #'s.  I know chords are plucked by the first 
         guitar here but they elude me.  Heres my best guess.

	Gtr. 1
|  ----------------------------------------------------------------------------
|5|-------6--x---------x------------6--x---------x------------6--x---------x---
|7|-x------------x------------x------------x------------x------------x---------
|7|----x------------5-----x------x------------5-----x------x------------5-----x
|  ----------------------------------------------------------------------------
|  ----------------------------------------------------------------------------
|	Gtr. 2
|  ----------------------------------------------------------------------------
|  ----------------------------------------------------------------------------
|  ----------------------------------------------------------------------------
|  0-0--0-0--8-8--8-8--8888--0-0--0-0--8-8--8-8--8888--0-0--0-0--8-8--8-8--8888
|  0-0--0-0--8-8--8-8--8888--0-0--0-0--8-8--8-8--8888--0-0--0-0--8-8--8-8--8888
|  0-0--0-0--8-8--8-8--8888--0-0--0-0--8-8--8-8--8888--0-0--0-0--8-8--8-8--8888

	Gtr. 1
|-----------------
|-----------------
|-7-7-7-7--7-7-7-7
|-7-7-7-7--7-7-7-7
|-----------------
|-----------------
|	Gtr. 2
|-----------------
|-----------------
|-----------------
|-5-5-5-5--3-3-3-3
|-5-5-5-5--3-3-3-3
|-5-5-5-5--3-3-3-3


		Bridge:

	*Timing is hard to hit right on this part so listen carefully.
	*This bridge completely eludes me, so I wrote something that sounds 
         close enough.  I'll post the real one as a comment at the bottom as  
         soon as I figure it out.

	Gtr. 1 & 2
|----------------------------------------------------------
|----------------------------------------------------------
|----------------------------------------------------------
|-0-0--0-0--0-0-0-3--0-0-0-10--0-0--0-0--0-0-0-3--0-0-0-10-
|-0-0--0-0--0-0-0-3--0-0-0-10--0-0--0-0--0-0-0-3--0-0-0-10-
|-0-0--0-0--0-0-0-3--0-0-0-10--0-0--0-0--0-0-0-3--0-0-0-10-
 |-------PM------|  |--PM-|   |-------PM------|  |--PM-|

	Gtr. 1 & 2
|--------------------------------------------------------------------
|--------------------------------------------------------------------
|--------------------------------------------------------------------
|-0-00-0-3/2-0h3-2-0-00-0-3/2-0h3-2-0-00-0-3/2-0h3-2-0-00-0-3/2-0h3-2
|-0-00-0-3/2-0h3-2-0-00-0-3/2-0h3-2-0-00-0-3/2-0h3-2-0-00-0-3/2-0h3-2
|-0-00-0-3/2-0h3-2-0-00-0-3/2-0h3-2-0-00-0-3/2-0h3-2-0-00-0-3/2-0h3-2
   |PM|             |PM|             |PM|             |PM|


		Outro:

	*The outro is nothing but the chorus a third tiem immediately after the 
         bridge and then the second bridge section ending on a muted Db power 
         chord.  You'll hear how it goes.

Order:
	Intro
	Verse1
	Pre-chorus
	Chorus1
	Verse2
	Pre-chorus
	Chorus2
	Bridge
	Outro


I want comments please.  If you are registered please rate this tab and post 
some comments.  Thank you.


CGR:  Fast Fingarz
Email:  Catfish1988@juno.com

Love and Peace

Comments about this tab

lightthefire85 - 2004-06-13

Sounds like it is accurate. I saw them live and had a good view, but wasn't really paying attention to what they were( got into the show alot), but it sounds right to me.


newsboysrule - 2004-11-06

Dude the bridge sounds really good to me. it sounds really accurate.


lilstrat101 - 2005-02-07

Hey, good job on this tab...it sounds great!


Strumming4Jesus - 2005-02-18

Dude!
awsome tab. Sounds really accurate to me! keep up the good work!

Rocking for mi Cristo!
~Steven


GodrulesWill777 - 2005-05-12

Love the bridge. This song is awesome! Thanks alot.
ROCK 4 Christ.
Forever!


mmggppmgp - 2005-07-28

hmm so a lot in this cd is tuned out... dangit... i dont wanna tune down


Naragrath - 2006-12-26

I played it your way for a while and it sounded right, but after a while it sounded a little off (for the verse). Instead of
C#-------------------------
G#-0-0--7-7--8-8--8-8--8888
C#-0-0--7-7--8-8--8-8--8888 it should be

C#---------------------------
G#-12-12--7-7--8-8--8-8--8888
C#-12-12--7-7--8-8--8-8--8888 Souds perfect to me.

In the Live CD you can hear that its played on the twelth fret.


12thsaint - 2007-03-15

Way to go man, keep the tabs comming!


Add a comment/correction

Complimentary Christian Ringtones
Dadamobile and CGR have teamed up to bring your favorite Christian artists right to your phone. Sign up today and get 10 complementary ringtones!
Tab Country
Did you know CGR has a sister site w/ country guitar tabs? Well we do! Its called Tab Country. It has a great archive with a lot of country tabs.
Rockin Tabs
Are you looking for a site that has rock guitar tabs? Then Rockintabs.com is the place for you. It is a budding site with many rock guitar tabs. Submit your tab today.
Tab Gallery
Tab Gallery has a compilation of christian, rock, and country tabs all in one place. Come visit us.