Guitar Tabs
song title    band name

Join Us Today!

Don't strum alone...
be a part of the largest online Christian music community. Browse thousands of guitar tabs and chat w/ musicians like yourself.


It's Free!

This tab has been rated a 3.00 out of 5 for accuracy. (2 votes)Sorry, but you must be logged in to rate this tab.
Click here to log-in, or you can click here to register.
(Registration is free)

All songs owned by corresponding publishing company. If you make copies of any song on this website, be sure to report your usage to CCLI.
Submitted by: aznechelon

Title: Intoxicating
Artist: David Crowder Band
Album: Illuminate
(c)2003 Inot Music

Tuning: Half-step down

Intro/Verse Pt. 1:
    C     D           C
e|-----------------------|
B|-----------------------|
G|--9/11--11--x-x--x--9--|
D|--x/x---x---x-x--x--x--|
A|--7/9---9---x-x--x--7--|
E|--8/10--10--x-x--x--8--|

This part has a very rythmical playing/muting part.It's not
that hard to figure out if you're clever.

Verse Pt. 2:
    B/D   C/D
e|-----------|
B|--3-----3--|
G|--2-----2--|
D|--0-----0--|
A|--2-----3--|
E|-----------|

Figure out the order yourself.

At the end of Verse Pt. 2:
Leading into Verse Pt. 1:
    B/D   Bb/D   A/D
e|------------------|
B|--3-----3------3--|
G|--2-----2------2--|
D|--0-----0------0--|
A|--2-----1------0--|
E|------------------|

Leading into Chorus:
    B/D   Bb/D  A/D   Ab/D  G/D
e|-----------------------------|
B|--3-----3-----3-----3-----3--|
G|--2-----2-----2-----2-----2--|
D|--0-----0-----0-----0-----0--|
A|--2-----1-----0-----x-----x--|
E|--------------------4-----3--|

Just hit each of these chords once.

Chorus:
    D  G  D/F#
e|-----------|
B|--3--3--3--|
G|--2--2--2--|
D|--0--0--0--|
A|-----x--0--|
E|-----3--2--|

Figure out the rythmn/strum/order/etc. by yourself. Have fun playing and God bless.

Comments about this tab

Passport56 - 2006-03-11

The modified D-chords that you are writing Bb/D, A/D etc. should actually be the other way: D/A, D/B, etc - and you see that with the more familiar example D/F# which you do write correctly.


dobrijdjen - 2006-04-15

Also I think some of the chord fingerings themselves are inaccurate. I saw Crowder play this in concert, and it didn't look like this.
-Ben.


Alex_face - 2006-08-16

The other version here has the intro correctly, this one is a step too high. This one has the chords right, the other one doesn't. Good work on that part. I wish someone would do the instrumental outro thing.


Add a comment/correction

Complimentary Christian Ringtones
Dadamobile and CGR have teamed up to bring your favorite Christian artists right to your phone. Sign up today and get 10 complementary ringtones!
Tab Country
Did you know CGR has a sister site w/ country guitar tabs? Well we do! Its called Tab Country. It has a great archive with a lot of country tabs.
Rockin Tabs
Are you looking for a site that has rock guitar tabs? Then Rockintabs.com is the place for you. It is a budding site with many rock guitar tabs. Submit your tab today.
Tab Gallery
Tab Gallery has a compilation of christian, rock, and country tabs all in one place. Come visit us.