Guitar Tabs
song title    band name

Join Us Today!

Don't strum alone...
be a part of the largest online Christian music community. Browse thousands of guitar tabs and chat w/ musicians like yourself.


It's Free!

This tab has not yet been rated for accuracy.Sorry, but you must be logged in to rate this tab.
Click here to log-in, or you can click here to register.
(Registration is free)

All songs owned by corresponding publishing company. If you make copies of any song on this website, be sure to report your usage to CCLI.
Submitted by: thatguy6565

Artist: Calibretto 13
Song: Christian Hate Mail
Album: Enter the Danger Brigade
  
 (intro)                          (all this muted)                                
 e ---------------------------------------------------------
 B ---------------------------------------------------------
 G ---------------------------------------------------------
 D -------------------0-5-4-0-----------------------0-5-4-0-
 A -------------1-3-4---------4-3-1-3-33-44---1-3-4---------
 E -15\3-3--3-3-----------------------------3---------------
   only do the slide the very 1st time
                         (unmuted)  
 e ---------------------44-44-44-44-
 B ---------------------66-66-66-66-
 G ---------------------66-66-66-66-
 D ----------------(2x)-66-66-66-66-
 A (4-3-1-0-------------44-44-44-44-
 E --------3-33-3-3)----------------
                          1x only 

 (intro cont.) Do the same thing over but unmuted

 (intro cont.) 
 e -------------------------------------------------------------
 B -------------------------------------------------------------
 G -------------------------------------------------------------
 D ---5-4-----------5-4-----------5-4----------------------(2x)-
 A -------5-44-55-------5-55-66-------5-44-55-66--55------------
 E -3-------------3-------------3--------------------66-55------

 (intro cont.)
 e -----------------------------------------------------------
 B -----------------------------------------------------------
 G -------------------------------------------------88-77-----
 D ---------44-55---------4h5p4---------44-55-88-77-------(2x)
 A ---1-3-4---------1-3-4---------1-3-4-----------------------
 E -3-------------3-------------3-----------------------------

 e ----------------------------------------
 B ----------------------------------------
 G -55-------------------------------------
 D ----88----------0-00-3-1-11-0-----------
 A ----------0-1-3---------------1---------
 E --------3-----------------------3-3/4\3-
   
 (verse) 
 e -3-x-333-x-33-x-333-x-3-3-x-333-x-3-3--x-33-4-3-
 B -3-x-333-x-33-x-333-x-3-4-x-444-x-4-3--x-33-4-3-
 G -3-x-333-x-33-x-333-x-3-5-x-555-x-5-3--x-33-4-3-
 D -5-x-555-x-55-x-555-x-5-5-x-555-x-5-5--x-55-6-5-(6x for 1st verse) 
 A -5-x-555-x-55-x-555-x-5-3-x-333-x-3-5--x-55-6-5-(4x for 2nd verse)
 E -3-x-333-x-33-x-333-x-3-------------3- x-33-4-3-

 (verse cont.)
 e -33-x-3-3-x------5-5-5-5-5555-5555-
 B -44-x-4-3-x------7-7-7-7-8888-7777-
 G -55-x-5-3-x------7-7-7-7-7777-7777-
 D -55-x-5-5-x-(3x)-7-7-7-7-7777-7777-
 A -33-x-3-5-x------5-5-5-5-5555-5555-
 E --------3-x------------------------
 
 (1st chorus)          (not sure)                    (not sure)          
 e -3-3-3333-3-3-3333-6-6-6666-5-5-5555-3-3-3333-3-3-3333-6-6-6666-5-
 B -3-3-3333-4-4-4444-8-8-8888-7-7-7777-3-3-3333-4-4-4444-8-8-9888-7-
 G -3-3-3333-5-5-5555-8-8-8888-7-7-7777-3-3-3333-5-5-5555-8-8-8888-7-
 D -5-5-5555-5-5-5555-8-8-8888-7-7-7777-5-5-5555-5-5-5555-8-8-8888-7-
 A -5-5-5555-3-3-3333-6-6-6666-5-5-5555-5-5-5555-3-3-3333-6-6-6666-5-
 E -3-3-3333----------------------------3-3-3333---------------------

 (bridge 1)
 e ----------------------------------------------------------------------------
 B ----------------------------------------------------------------------------
 G ----------------------------------------------------------------------------
 D -----------------------------------------------0-0000-3-1-111-0-------------
 A 5\keep picking when sliding down\0------11--33------------------1-----------
 E -----------------------------------3-33---------------------------3-33-3/4\3

 (bridge 1 cont.)
 e ---------------------------------------------------------------1
 B -----------------------------------------------------11-3-3333--
 G -----------------------------------0000-1111-0-00-33------------
 D -------------00--33-11-00--------3------------------------------
 A ------11-33---------------3-33-1--------------------------------
 E -3-33-----------------------------------------------------------

 e -------------------------
 B -4-444-3-----------------
 G ---------3-0-00-0h1p0----
 D -------------------------
 A -------------------------
 E -------------------------
   
 (bridge 1 cont.)  no elevens, ones
 e ---------------11----------------1-3333-4444-
 B ---------11-33----44-33-1-11-4-3-------------
 G -0-00-33-------------------------------------
 D ---------------------------------------------
 A ---------------------------------------------
 E ---------------------------------------------

 (verse 2)

 (chorus 2)
  
 (bridge 2) 
 e -3---------------3-3---------------3--5-3-3-5555555-
 B -3---------------3-4---------------3--7-4-3-7777777-
 G -3---------------3-5---------------3--7-5-3-7777777-
 D -5---------------5-5---------------5--7-5-5-7777777-
 A -5-(let it ring)-5-3-(let it ring)-5--5-3-5-5555555- 
 E -3---------------3-----------------3------3---------

 (verse cont.)
 
 (chorus 3) repeat the chorus 2 times. The 1st time normal. The 2nd time let 
 the notes flow more, instead of the normal stacoto(ish) notes. 

 (end on) 
 e -3-
 B -3-
 G -3-
 D -5-
 A -5-
 E -3-

 That should be it. I hope this helps in some way. I know that it's not 100%
 correct, but i like to think it's something like 95% correct. if you don't 
 have all of calebretto 13's cds go buy them all, because they rule!

Comments about this tab

No comments/corrections found. Add your own

Complimentary Christian Ringtones
Dadamobile and CGR have teamed up to bring your favorite Christian artists right to your phone. Sign up today and get 10 complementary ringtones!
Tab Country
Did you know CGR has a sister site w/ country guitar tabs? Well we do! Its called Tab Country. It has a great archive with a lot of country tabs.
Rockin Tabs
Are you looking for a site that has rock guitar tabs? Then Rockintabs.com is the place for you. It is a budding site with many rock guitar tabs. Submit your tab today.
Tab Gallery
Tab Gallery has a compilation of christian, rock, and country tabs all in one place. Come visit us.