Guitar Tabs
song title    band name

Join Us Today!

Don't strum alone...
be a part of the largest online Christian music community. Browse thousands of guitar tabs and chat w/ musicians like yourself.


It's Free!

This tab has been rated a 4.33 out of 5 for accuracy. (6 votes)Sorry, but you must be logged in to rate this tab.
Click here to log-in, or you can click here to register.
(Registration is free)

All songs owned by corresponding publishing company. If you make copies of any song on this website, be sure to report your usage to CCLI.
Submitted by: Adam K

Kutless-Let You In
Drop C# Tuning C#-G#-C#-F#-A#-D#

Intro
C#[-0-0--7-7--8-8--8-8--8-8-8-]
G#[-0-0--7-7--8-8--8-8--8-8-8-]x2
C#[---------------------------]
P.M...........................

C#[-0-0--7-7--8-8--8-8--8-8-8-]
G#[-0-0--7-7--8-8--8-8--8-8-8-]x3
C#[-0-0--7-7--8-8--8-8--8-8-8-]
P.M...........................
Then
C#[-0-0--7-7--3-3--3-3--3-3-3-]
G#[-0-0--7-7--3-3--3-3--3-3-3-]
C#[-0-0--7-7--3-3--3-3--3-3-3-]
P.M...........................

Verse
C#[-0-0--7-7--8-8--8-8--8-8-8-]
G#[-0-0--7-7--8-8--8-8--8-8-8-]x3
C#[-0-0--7-7--8-8--8-8--8-8-8-]
P.M...........................
Then
C#[-0-0--7-7--3-3--3-3--3-3-3-]
G#[-0-0--7-7--3-3--3-3--3-3-3-]
C#[-0-0--7-7--3-3--3-3--3-3-3-]
P.M...........................

Pre-Chorus
C#[-0--7-8-]
G#[-0--7-8-]x4
C#[-0--7-8-]

Chorus
C#[-0----8-]
G#[-0----8-]x3
C#[-0----8-]
Then
C#[-5----3-]
G#[-5----3-]
C#[-5----3-]

C#[-0----8-]
G#[-0----8-]x3
C#[-0----8-]
Then
C#[-5----3-]
G#[-5----3-]
C#[-5----3-]

Post-Chorus
C#[-0-0--7-7--8-8--8-8--8-8-8-]
G#[-0-0--7-7--8-8--8-8--8-8-8-]x3
C#[-0-0--7-7--8-8--8-8--8-8-8-]
P.M...........................
Then
C#[-0-0--7-7--3-3--3-3--3-3-3-]
G#[-0-0--7-7--3-3--3-3--3-3-3-]
C#[---------------------------]
P.M...........................

Verse 2
(Same as Verse 1)
Pre-Chorus
Chorus

Bridge
C#[-0-0--0-0--0-0-0-3--0-0---]
G#[-0-0--0-0--0-0-0-3--0-0-3-]x4
C#[-0-0--0-0--0-0-0-3--0-0---]
P.M.................  .....
Then
C#[-0-0--0-0--3h2--0-3--2-]
G#[-0-0--0-0--3h2--0-3--2-]x4
C#[-0-0--0-0--3h2--0-3--2-]

Chorus

Outro
C#[-0-0--0-0--3h2--0-3--2-]
G#[-0-0--0-0--3h2--0-3--2-]x3
C#[-0-0--0-0--3h2--0-3--2-]

C#[-0-0--0-0--0-0-]
G#[-0-0--0-0--0-0-]
C#[-0-0--0-0--0-0-]

Copyright 2004 Thirsty Moon 
River Publishing (ASCAP)
/Indecisive Music Publishing 
(ASCAP)/Spinning Audio Vortex
(BMI)/Solid People Songs (BMI).

Tabbed by Adam K


Comments about this tab

BCRichy - 2004-05-19

Sweet tab but on the verses and the pre choruses when it goe to
D#--0-7-3-3-3-3-3 it actually goes D#--0-7-3-3-3h5-5-5
A#--0-7-3-3-3-3-3 A#--0-7-3-3-3h5-5-5
D#--0-7-3-3-3-3-3 D#--0-7-3-3-3h5-5-5
but besides that awesome.


snipr - 2004-06-03

Try this out for the intro/verse: It sounds a lot better, at least to me, but the tuning is a problem, unless you tabbed out the chorus wrong, but your version sounds right. :/ . Well, anyway, try this out, because I think this sounds better:

Standard Tuning:
Intro:
Palm muted(distorted)
e:
B:
G:-----------
D:66---------
A:---66-7777-
E:-----------

Verse:

e:
B:
G:-----------
D:66-66-7777-
A:44-66-7777- 3x
E:44-44-5555-

4th time:

e:
B:
G:-----------
D:66-66-2222-
A:44-66-2222-
E:44-44-0000-

Well, tell me what you think, to me, this sounds better. The only thing is, this would throw off the rest of the song, like with the chorus and everything, unless you tabbed it wrong, except your chorus sounds right.
My email address is: swnkylaxplyr@earthlink.net


newsboysrule - 2004-11-06

There is an extra lead in the chorus. It's not 100% clear but you can definately hear it.


Add a comment/correction

Complimentary Christian Ringtones
Dadamobile and CGR have teamed up to bring your favorite Christian artists right to your phone. Sign up today and get 10 complementary ringtones!
Tab Country
Did you know CGR has a sister site w/ country guitar tabs? Well we do! Its called Tab Country. It has a great archive with a lot of country tabs.
Rockin Tabs
Are you looking for a site that has rock guitar tabs? Then Rockintabs.com is the place for you. It is a budding site with many rock guitar tabs. Submit your tab today.
Tab Gallery
Tab Gallery has a compilation of christian, rock, and country tabs all in one place. Come visit us.