Guitar Tabs
song title    band name

Join Us Today!

Don't strum alone...
be a part of the largest online Christian music community. Browse thousands of guitar tabs and chat w/ musicians like yourself.


It's Free!

This tab has been rated a 4.78 out of 5 for accuracy. (9 votes)Sorry, but you must be logged in to rate this tab.
Click here to log-in, or you can click here to register.
(Registration is free)

All songs owned by corresponding publishing company. If you make copies of any song on this website, be sure to report your usage to CCLI.
Submitted by: Adam K

Kutless-Troubled Heart
Drop C# Tuning C#-G#-C#-F#-A#-D#

Intro 1
F#[-11--------7----14----11--------14----16-]
C#[-11--------7----14----11--------14----16-]
G#[--9--------5----12-----9--------12----14-]

Intro 2
F#[-----9s11-11----9s11-11-------------9s11-11----9s11-11------]
C#[-4xx-9s11-11-4x-9s11-11-0--7----4xx-9s11-11-4x-9s11-11-7--9-]
G#[-4xx-7s-9--9-4x-7s-9--9-0--7----4xx-7s-9--9-4x-7s-9--9-7--9-]
C#[-4xx---------4x---------0--7----4xx---------4x---------7--9-]

Verse
C#[-0-x0-0----4-x4-4-]
G#[-0-x0-0----4-x4-4-]x2
C#[-0-x0-0----4-x4-4-]
Then
C#[-0-0-0----4-4-4----0-0-0----4-4-4-2-2-2-]
G#[-0-0-0----4-4-4----0-0-0----4-4-4-2-2-2-]
C#[-0-0-0----4-4-4----0-0-0----4-4-4-2-2-2-]

Chorus
C#[-4----0--7--4----7--9--4----0--7--2----0--9-]
G#[-4----0--7--4----7--9--4----0--7--2----0--9-]
C#[-4----0--7--4----7--9--4----0--7--2----0--9-]

Post-Chorus
C#[-0-x0-0----4-x4-4-]
G#[-0-x0-0----4-x4-4-]x2
C#[-0-x0-0----4-x4-4-]

Verse
Chorus

Bridge
C#[-2----9----7----5-]
G#[-2----9----7----5-]x2
C#[-2----9----7----5-]

Chorus 2
F#[-----9s11-11----9s11-11---------------------------------------]
C#[-4xx-9s11-11-4x-9s11-11-0--7--4----7--9--4----0--7--2----0--9-]
G#[-4xx-7s-9--9-4x-7s-9--9-0--7--4----7--9--4----0--7--2----0--9-]
C#[-4xx---------4x---------0--7--4----7--9--4----0--7--2----0--9-]

F#[-----9s11-11----9s11-11-------------9s11-11----9s11-11--------------------
C#[-4xx-9s11-11-4x-9s11-11-0--7----4xx-9s11-11-4x-9s11-11-7--9--4----0--7--2-
G#[-4xx-7s-9--9-4x-7s-9--9-0--7----4xx-7s-9--9-4x-7s-9--9-7--9--4----0--7--2-
C#[-4xx---------4x---------0--7----4xx---------4x---------7--9--4----0--7--2-

---0--9-]
---0--9-]
---0--9-]

2004 Thirsty Moon River Publishing (ASCAP)/Indecisive Music Publishing (ASCAP)
Spinning Audio Vortex (BMI)/Solid People Songs (BMI).

Tabbed by Adam K

Comments about this tab

MaddaCheeb65 - 2004-08-30

good tab but your missing one part on the verse


kieta243 - 2004-10-29

hey when you say its in drop C# tuning (c# g# c# f# a# d#)
does that mean, for example if you played the 6th string open the note would be C#/Db? or just plain C?


newsboysrule - 2004-11-06

Yeah Kieta the sixth string would be a C#. Dude the intro on this tab sounds good but I think you're missing a lead.


PromiseKept_86 - 2005-01-15

i think the lead for the verse is -5-5-5-0-9-9-9-5
Play that in the C#G#C#F#A#D# tuning and it should be right on figuring out the lead now


nate_big12 - 2005-08-17

In the intro it sounds like harmonics. It is also in the verse too. I didnt read the tab over well, just at a glance, so there may be harmonics there and i just didnt see them.


spverghese - 2006-04-09

Here are the intro harmonics by string: D string (7th Fret) A string (7th Fret)/ [here is the next part]/ A string (4th Fret) A string (5th Fret)

Have fun guys!!!


sold out - 2007-01-22

great job on the tab. there is a part in the verse thats missing though. it goes like this
-------------10-10-10---------------14-14-14--
---------------------9----------------------14
0-0-0-0-----------------4-4-4-4---------------
0-0-0-0-----------------4-4-4-4---------------
0-0-0-0-----------------4-4-4-4---------------
. .


sold out - 2007-01-22

sorry about the last correction. one of the dots should be under the third zero and the other under the third four. didn't want to confuse anyone


Add a comment/correction

Complimentary Christian Ringtones
Dadamobile and CGR have teamed up to bring your favorite Christian artists right to your phone. Sign up today and get 10 complementary ringtones!
Tab Country
Did you know CGR has a sister site w/ country guitar tabs? Well we do! Its called Tab Country. It has a great archive with a lot of country tabs.
Rockin Tabs
Are you looking for a site that has rock guitar tabs? Then Rockintabs.com is the place for you. It is a budding site with many rock guitar tabs. Submit your tab today.
Tab Gallery
Tab Gallery has a compilation of christian, rock, and country tabs all in one place. Come visit us.