Guitar Tabs
song title    band name

Join Us Today!

Don't strum alone...
be a part of the largest online Christian music community. Browse thousands of guitar tabs and chat w/ musicians like yourself.


It's Free!

This tab has been rated a 4.61 out of 5 for accuracy. (18 votes)Sorry, but you must be logged in to rate this tab.
Click here to log-in, or you can click here to register.
(Registration is free)

All songs owned by corresponding publishing company. If you make copies of any song on this website, be sure to report your usage to CCLI.
Submitted by: Adam K

Kutless-Treason
Album - Sea of Faces

Drop C# Tuning C#-G#-C#-F#-A#-D#

Intro
C#[-0--4--7-0--4--7-0--4--7-0--4--2h4-2-]
G#[-0--4----0--4----0--4----0--4--2h4-2-]x2
C#[-0--4----0--4----0--4----0--4--2h4-2-]

Verse
F#[-4----2-]
C#[-4----2-]
G#[-2----0-]
Then
C#[-0--4--7-0--4--7-0--4--7-0--4--2h4-2-]
G#[-0--4----0--4----0--4----0--4--2h4-2-]
C#[-0--4----0--4----0--4----0--4--2h4-2-]

F#[-4----2-]
C#[-4----2-]
G#[-2----0-]
Then
C#[-0--4--7-0--4--7-0--4--7-0--4--2h4-2-]
G#[-0--4----0--4----0--4----0--4--2h4-2-]
C#[-0--4----0--4----0--4----0--4--2h4-2-]

C#[-2----0-]
G#[-2----0-]
C#[-2----0-]

Chorus
C#[-4----7----0----7/7-9-9--7/7-2-]
G#[-4----7----0--------9-9------2-]x2
C#[-4----7----0--------9-9------2-]

Intro
Verse
Chorus

Bridge
C#[-4------0--4------0--4------0--4-xxx-]
G#[-4--5h4-0--4--5h4-0--4--5h4-0--4-xxx-]
C#[-4------0--4------0--4------0--4-xxx-]
Then
C#[-4-4h5-4--4-4h5-4--4-4h5-4--7-7-2-2--4-4h5-4--4-4h5-4--4-4h5-4--9-9xx0-]
G#[-4-4h5-4--4-4h5-4--4-4h5-4--7-7-2-2--4-4h5-4--4-4h5-4--4-4h5-4--9-9xx0-]
C#[-4-4h5-4--4-4h5-4--4-4h5-4--7-7-2-2--4-4h5-4--4-4h5-4--4-4h5-4--9-9xx0-]

Pre-Chorus
C#[-2----0-]
G#[-2----0-]
C#[-2----0-]
P.M........

Chorus
C#[-4----7----0----7/7-9-9--7/7-2-]
G#[-4----7----0--------9-9------2-]x4
C#[-4----7----0--------9-9------2-]

Outro
C#[-0--4--7-0--4--7-0--4--7-0--4--2h4-2-]
G#[-0--4----0--4----0--4----0--4--2h4-2-]x2
C#[-0--4----0--4----0--4----0--4--2h4-2-]

2004 Thirsty Moon River Publishing (ASCAP)/Indecisive Music Publishing (ASCAP)
Spinning Audio Vortex (BMI)/Solid People Songs (BMI).


Tabbed by Adam K

Comments about this tab

SolDieR4AdoNai - 2005-02-11

good job on the tab!, try this for the bridge though, i think it sounds a little bit better...
-------------- ------------
-------------- ------------
----7\6------- ------------
-4-------0--4- -4--4h5-4-*7
-4--5\4--0--4- -4--4h5-4---
-4-------0--4- -4--4h5-4---

( * natural harmonic)


mfarrell - 2006-06-23

do you have this in chords?


CrossbearerJDC9 - 2006-09-20

The chords for the verse (when he actually sings) is B and A2 I belive.
Try that and see how it sounds.

CrossbearerJDC9 - Pick Up Your Cross
(Great tab by the way, exactly how my teacher tabbed it).


hiryuman07 - 2006-10-13


try this it might sound good

------------------------------------------
------------------------------------------
------------------------------------------
-444--777--222--9-777-0-9-777-------------
-444--777--222--9-----0-9-----------------
-444--777--222--9-----0-9-----------------


hiryuman07 - 2007-02-08

It Should Start Like This

C#-0-4-xx-7-0-4-xx-7-0-4-xx-7-]x2
G#-0-4-xx---0-4-xx---0-4-xx---]
C#-0-4-xx---0-4-xx---0-4-xx---]


Add a comment/correction

Complimentary Christian Ringtones
Dadamobile and CGR have teamed up to bring your favorite Christian artists right to your phone. Sign up today and get 10 complementary ringtones!
Tab Country
Did you know CGR has a sister site w/ country guitar tabs? Well we do! Its called Tab Country. It has a great archive with a lot of country tabs.
Rockin Tabs
Are you looking for a site that has rock guitar tabs? Then Rockintabs.com is the place for you. It is a budding site with many rock guitar tabs. Submit your tab today.
Tab Gallery
Tab Gallery has a compilation of christian, rock, and country tabs all in one place. Come visit us.