Guitar Tabs
song title    band name

Join Us Today!

Don't strum alone...
be a part of the largest online Christian music community. Browse thousands of guitar tabs and chat w/ musicians like yourself.


It's Free!

This tab has been rated a 4.93 out of 5 for accuracy. (14 votes)Sorry, but you must be logged in to rate this tab.
Click here to log-in, or you can click here to register.
(Registration is free)

All songs owned by corresponding publishing company. If you make copies of any song on this website, be sure to report your usage to CCLI.
Submitted by: Adam K

Kutless-Passion
Drop C# Tuning C#-G#-C#-F#-A#-D#

Intro
A#[---------------------------5---------5------]
F#[---5---4--5---5---4--5---5---4--5--5---4--5-]
C#[-3---5------5---5---------------------------]
G#[-----------------------0----------0---------]

Verse
A#[---------------------------5---------5------]
F#[---5---4--5---5---4--5---5---4--5--5---4--5-]
C#[-3---5------5---5---------------------------]x4
G#[-----------------------0----------0---------]

Chorus
C#[-7----0----3----5-]
G#[-7----0----3----5-]x2
C#[-7----0----3----5-]

Intro
Verse
Chorus

Bridge
F#[-----------5------]
C#[-0----3----5----5-]
G#[-0----3----3----5-]
C#[-0----3---------5-]

F#[-----------5------]
C#[-0----3----5----5-]
G#[-0----3----3----5-]
C#[-0----3---------5-]
P.M.              ...

Chorus 
C#[-7----0----3----5-]
G#[-7----0----3----5-]x4
C#[-7----0----3----5-]

2004 Thirsty Moon River Publishing (ASCAP)/Indecisive Music Publishing (ASCAP)
Spinning Audio Vortex (BMI)/Solid People Songs (BMI).

Tabbed by Adam K

Comments about this tab

josh-rock - 2004-05-03

Hey! You did an awesome Job on this tab! I decided to post it instead of mine... the only thing that I'd do diferent is - I hit an open A# instead of fingering the F# string at the 4th fret. it rings out a little better that way... again, Good Job! 4.75 from me! God Bless... Josh-rock


osmaker - 2004-10-16

An easier way to pay the intro/verse stuff is like this:

------------------------------------------------------
--------0-------------------0-------------------------
------0-------0-----------0------0--------------------
---10------10----------10-----10----------------------
-8--------------8---10-------------10-----------------
------------------------------------------------------

-----0-----------------0------------------------------
-------0--1-0------------0--1-0-----------------------
-------------0------------------0---------------------
---2----------------2---------------------------------
-0----------------0-----------------------------------
------------------------------------------------------


guitar__freak - 2005-05-03

how do you do drop C# tuning?


peanutbutter4me - 2005-05-17

drop c# tuning is this:
if your guitar is in standard tune (e,b,g,d,a,e)tune your low e string down 3 half steps to c#, then tune all the other strings down a half step. It's a really fun tune to play in adios and rock on


ryan_grooms22 - 2005-05-18

thanks this is a awesome tab
i love these guys
this is my favorite song by them
really awesome message
god bless

-ryan_grooms22


susbandgeek1990 - 2006-05-06

Thie intro is even easier to play....

-------------------------------------------------------------------------
--------0-------------------0------------------0--------------------0----
------0-------0-----------0------0-----------9--------9-----------9------
---10------10----------10-----10----------10-------10---10-----10-----10-
-8--------------8---10-------------10---0--------------------0-----------
-------------------------------------------------------------------------

Hope this helps you guys. Check out my band at www.myspace.com/startupsunday


Ablaze2822 - 2006-08-04

Adam,
There is only one thing wrong with your song. In the bridge your third chord which looks like this: G#-5 should be played like this: G#-3 or this: G#-10
C#-5 C#-5 C#-10
G#-3 G#-3 G#-10
That's all. Just a minor correction in the bridge.


Ablaze2822 - 2006-08-04

Sorry the chords are messed up. The third chord in the bridge should look like this:

G#-3
C#-5
G#-3

or

G#-10
C#-10
G#-10


Add a comment/correction

Complimentary Christian Ringtones
Dadamobile and CGR have teamed up to bring your favorite Christian artists right to your phone. Sign up today and get 10 complementary ringtones!
Tab Country
Did you know CGR has a sister site w/ country guitar tabs? Well we do! Its called Tab Country. It has a great archive with a lot of country tabs.
Rockin Tabs
Are you looking for a site that has rock guitar tabs? Then Rockintabs.com is the place for you. It is a budding site with many rock guitar tabs. Submit your tab today.
Tab Gallery
Tab Gallery has a compilation of christian, rock, and country tabs all in one place. Come visit us.