Guitar Tabs
song title    band name

Join Us Today!

Don't strum alone...
be a part of the largest online Christian music community. Browse thousands of guitar tabs and chat w/ musicians like yourself.


It's Free!

This tab has not yet been rated for accuracy.Sorry, but you must be logged in to rate this tab.
Click here to log-in, or you can click here to register.
(Registration is free)

All songs owned by corresponding publishing company. If you make copies of any song on this website, be sure to report your usage to CCLI.
Submitted by: qtipstabsbrain

Title: Score Goals, Not Drugs
Artist: The Smiley Kids
Album: Not too sure, I think it's from Don't Get Bored
Tuning: Standard

intro/chorus

e|------------------------------------------------------------
B|------------------------------------------------------------
G|---------------------7-7-777-7-77-7-7-----------------------
D|-7xxx-6-6--7xxx-6-6--7-7-777-7-77-7-7-----------------------
A|-7xxx-7-7--7xxx-7-7--5-5-555-5-55-5-5-----------------------
E|-5xxx------5xxx---------------------------------------------
                         pm^^^   ^^

e|------------------------------------------------------------
B|------------------------------------------------------------
G|---------------------7-7-777-77664--------------------------
D|-7xxx-6-6--7xxx-6-6--7-7-777------77------------------------
A|-7xxx-7-7--7xxx-7-7--5-5-555--------------------------------
E|-5xxx------5xxx---------------------------------------------

verse
e|------------------------------------------------------------
B|------------------------------------------------------------
G|-------------9-7-7-7-7-7-7-7-7------------------------------
D|-7-7-7-7-7-7-9-7-7-7-7-7-7-7-7-4-4-4-4-6-6-6-6-7-7-7-7-xxx-- x2
A|-7-7-7-7-7-7-7-5-5-5-5-5-5-5-5-4-4-4-4-6-6-6-6-7-7-7-7-xxx--
E|-5-5-5-5-5-5-------------------2-2-2-2-4-4-4-4-5-5-5-5-xxx--
                                         rake the strings^^^
intro/chorus x2
verse x2
intro/chorus x2 then
breakdown
e|------------------------------------------------------------\
B|------------------------------------------------------------ \
G|------------------------------------------------------------  \
D|-4-xx-4-xx-4-xx-4p2-7-xx-7-xx-7-xx-7\6----------------------   \
A|-4-xx-4-xx-4-xx-4p2-7-xx-7-xx-7-xx-7\6----------------------    \
E|-2-xx-2-xx-2-xx-2p0-5-xx-5-xx-5-xx-5\4----------------------     \
                                                                   x2
e|------------------------------------------------------------     /
B|------------------------------------------------------------    /
G|------------------------------------------------------------   /
D|-4-xx-4-xx-4-xx-4p2-7/9/11-7\6------------------------------  /
A|-4-xx-4-xx-4-xx-4p2-x/x/x--7\6------------------------------ /
E|-2-xx-2-xx-2-xx-2p0-5/7/9--5\4------------------------------/


e|------------------------------------------------------------
B|------------------------------------------------------------
G|-------------------77777777---------------------------------
D|-4--------2--------77777777---(rest for lyrics)-------------
A|-4--------2--------55555555---------------------------------
E|-2--------0-------------------------------------------------

e|------------------------------------------------------------
B|------------------------------------------------------------
G|----9-7776-----------4/6------------------------------------
D|-77-9-7776-444-6-222-x-x------------------------------------ x4
A|-77-7-5554-444-6-222-2/4------------------------------------
E|-55--------222-4 000----------------------------------------

outro
e|------------------------------------------------------------
B|------------------------------------------------------------
G|---------7-7-7-7--------------------------------------------
D|-7-7-7-7-7-7-7-7-4-4-4-4-2-2-2-2---------------------------- 
A|-7-7-7-7-5-5-5-5-4-4-4-4-2-2-2-2----------------------------
E|-5-5-5-5---------2-2-2-2-0-0-0-0----------------------------
repeat the outro like 16 times and thats it
if its not totally right, let me know and ill consult the last touring drummer
they had... or ill just email george himself.
God bless! Score Goals, Not Drugs!

Comments about this tab

No comments/corrections found. Add your own

Complimentary Christian Ringtones
Dadamobile and CGR have teamed up to bring your favorite Christian artists right to your phone. Sign up today and get 10 complementary ringtones!
Tab Country
Did you know CGR has a sister site w/ country guitar tabs? Well we do! Its called Tab Country. It has a great archive with a lot of country tabs.
Rockin Tabs
Are you looking for a site that has rock guitar tabs? Then Rockintabs.com is the place for you. It is a budding site with many rock guitar tabs. Submit your tab today.
Tab Gallery
Tab Gallery has a compilation of christian, rock, and country tabs all in one place. Come visit us.