Guitar Tabs
song title    band name

Join Us Today!

Don't strum alone...
be a part of the largest online Christian music community. Browse thousands of guitar tabs and chat w/ musicians like yourself.


It's Free!

This tab has been rated a 4.25 out of 5 for accuracy. (4 votes)Sorry, but you must be logged in to rate this tab.
Click here to log-in, or you can click here to register.
(Registration is free)

All songs owned by corresponding publishing company. If you make copies of any song on this website, be sure to report your usage to CCLI.
Submitted by: Symbiotic

Song: Vow
Artist: Kutless
Album: Self-Titled
Copyright: 2002 Tooth & Nail Records
Tabbed by: Joel 

This seems to be the most conclusive version on the site yet.  This is a 
great song.  If you ever get the chance to see these guys live.....DO IT!!
they really know how to put on a show. This is my first tab ever, but I 
think that it is quite accurate(98%). Enjoy.

Intro:

	C5			G#5			G5
e|----------------------------------------------------------
B|----------------------------------------------------------
G|-------5--------------------------------------------------
D|---5-------5----------6---------------5-------------------
A|-3---3---3---3------6---6---6-----5-------5---------------
E|----------------4-4-------4-----3---3---3---3----3/6------

Verse:

  C5		  G#5		  G5		   A#5    
e|----------------------------------------------------------------
B|----------------------------------------------------------------
G|-------5--------------------------------------------------------
D|---5-------5----------6---------------5----------------8--------
A|-3---3---3---3------6---6---6-----5-------5--------8-------8----
E|----------------4-4-------4-----3---3---3---3----6---6---6---6--

Fill 1:

        A5
e|----------------
B|----------------
G|----------------
D|-8-5-5-8-5-5-8-8
A|-8-5-5-8-5-5-8-8
E|-6-3-3-6-3-3-6-6


Chorus:

    C5         G#5        D#5	     A#5
e|-------------------------------------------------
B|–------------------------------------------------
G|–-5-5-5-5-5-------------8-8-8-8-8----------------
D|––5-5-5-5-5--6-6-6-6-6--8-8-8-8-8--8-8-8-8-8-----
A|–-3-3-3-3-3--6-6-6-6-6--6-6-6-6-6--8-8-8-8-8-----
E|-------------4-4-4-4-4-------------6-6-6-6-6-----

Bridge:

   C5		    D#5		     A#5	       A#5
e|-----------------------------------------------------------------------
B|-----------------------------------------------------------------------
G|-5-5-5-5-5-5-5-5--8-8-8-8-8-8-8-8--------------------------------------
D|-5-5-5-5-5-5-5-5--8-8-8-8-8-8-8-8--8-8-8-8-8-8-8-8---8-8-8-8-8-8-8-8---
A|–3-3-3-3-3-3-3-3--6-6-6-6-6-6-6-6--8-8-8-8-8-8-8-8---8-8-8-8-8-8-8-8---
E|-----------------------------------6-6-6-6-6-6-6-6---6-6-6-6-6-6-6-6---
   . . . . . . . .  . . . . . . . .  . . . . . . . .   . . . .

Fill 2:

     C5\A5	 G#5	     D#5	 A#5
e|------------------------------------------------
B|–-----------------------------------------------
G|–5-5-5-5-5\2---------------8-8-8-8-8------------
D|–5-5-5-5-5\2---6-6-6-6-6---8-8-8-8-8---8-8-8-8-8
A|-3-3-3–3-3\0---6-6-6-6-6---6-6-6-6-6---8-8-8-8-8
E|---------------4-4-4-4-4---------------6-6-6-6-6


\ = slide down
/ = slide up
. = palm mute

Order:
Intro
Verse
Fill 1
Chorus
Verse
Fill 1
Chorus
Bridge
Fill 2
Chorus

Email me at conceived__in__fire@hotmail.com (those are double underscores btw) 
and let me know what you think of this.
Just put something related to CGR in the subject bar so I read it.  God Bless.

Comments about this tab

dtaylorl - 2004-09-07

I like the tab... I've only looked at the intro so far, but I would have done it like this:
e|---------------------------------------------
B|---------------------------------------------
G|--------5------------------------------------
D|---5------5----------6-------------5---------
A|-3---3----------6-------6-----5-------5------
E|------------4-4----4--------3---3---------3/6


TFKfandude - 2005-01-06

Hey, great tab! Especially for you first tab. I only have on correction to make. And that is I think in the chorus where play the D# i think it sounds better if you use the bar chord. the lower one i mean. i can't figure out how to put a tab in this comment thingy, so i can't explaing it any better. i think it sounds better that way. but you mostly did a jood job. Thanks.


Symbiotic - 2005-03-23

I accually tried to use the lower D#, but it was the wrong octave. It does sound better with the lower one, but the higher one is the one in the song. I'm very sure of that. Just give it a listen without playing along.


CrossbearerJDC9 - 2006-09-14

I think it sounds better like this:
Drop D
D-----------10--------------6------------5-----------------------
A----10--------10-------6-----6------5-----5---------------------
D-10-----10-------10--6---6-----6--5---5-----5---9(let ring)--999
Try that and see if it works - it sounds food to me.
CrossbearerJDC9 - Pick up your cross


guitarcordfreak - 2006-09-21

it needs to be in drop D


Add a comment/correction

Complimentary Christian Ringtones
Dadamobile and CGR have teamed up to bring your favorite Christian artists right to your phone. Sign up today and get 10 complementary ringtones!
Tab Country
Did you know CGR has a sister site w/ country guitar tabs? Well we do! Its called Tab Country. It has a great archive with a lot of country tabs.
Rockin Tabs
Are you looking for a site that has rock guitar tabs? Then Rockintabs.com is the place for you. It is a budding site with many rock guitar tabs. Submit your tab today.
Tab Gallery
Tab Gallery has a compilation of christian, rock, and country tabs all in one place. Come visit us.