Guitar Tabs
song title    band name

Join Us Today!

Don't strum alone...
be a part of the largest online Christian music community. Browse thousands of guitar tabs and chat w/ musicians like yourself.


It's Free!

This tab has been rated a 4.30 out of 5 for accuracy. (10 votes)Sorry, but you must be logged in to rate this tab.
Click here to log-in, or you can click here to register.
(Registration is free)

All songs owned by corresponding publishing company. If you make copies of any song on this website, be sure to report your usage to CCLI.
Submitted by: MickyG

Treason
by Kutless
tabbed by MickG
Tuning is DbAbDbGbBbeb....drop d..then half step down


Key:
h=hammer on
p=pull of
*=palm mute
x=ded note
/=slide up
\=slide down


hey pepl.....this is a sweet as song...
it goes something like this...


Verse:


|------------------------------------------------|
|-------1010-------1010-------1010---------------|
|--------x-x--------x-x--------x-x---------------|
|-0-4-44-7-7-0-4-44-7-7-0-4-44-7-7-0-4-442-4-2-0-|
|-0-4-44-----0-4-44-----0-4-44-----0-4-442-4-2-0-|
|-0-4-44-----0-4-44-----0-4-44-----0-4-442h4p2p0-|
      **         **         **         **

|-----------------------------------------------------------|
|-----1010-------1010-------1010----------------------------|
|------x-x--------x-x--------x-x----------------------------|
|-4-44-7-7-0-4-44-7-7-0-4-44-7-7-0-4-442-4-2-0-9----9----2-0|
|-4-44-----0-4-44-----0-4-44-----0-4-442-4-2-0-9----7----2-0|
|-4-44-----0-4-44-----0-4-44-----0-4-442h4p2p0-9----7----2p0|
    **         **         **         **

|-----------------------------------------------------------|
|-----1010-------1010-------1010----------------------------|
|------x-x--------x-x--------x-x----------------------------|
|-4-44-7-7-0-4-44-7-7-0-4-44-7-7-0-4-442-4-2-0-9----9----2-0|
|-4-44-----0-4-44-----0-4-44-----0-4-442-4-2-0-9----7----2-0|
|-4-44-----0-4-44-----0-4-44-----0-4-442h4p2p0-9----7----2p0|
    **         **         **         **

|------------------------------------------------------|
|-----1010-------1010-------1010-----------------------|
|------x-x--------x-x--------x-x-----------------------|
|-4-44-7-7-0-4-44-7-7-0-4-44-7-7-0-4-442-4-2-2----0----|
|-4-44-----0-4-44-----0-4-44-----0-4-442-4-2-2----0----|
|-4-44-----0-4-44-----0-4-44-----0-4-442h4p2-2----0----|
    **         **         **         **

Chorus:


|---------------------------------------------------------------------|
|-----------------------------------------------1010----1010----------| 
|------------------------------------------------X-X-----x-x----------|
|-4-4-4-4-4-4-4-4-/7-7-7-7-7-7-7-7-7-0--0000---0-7-7-9-9-7-7-2-2-222p0|
|-4-4-4-4-4-4-4-4-/7-7-7-7-7-7-7-7-7-0--0000---0-----9-9-----2-2-222p0|
|-4-4-4-4-4-4-4-4-/7-7-7-7-7-7-7-7-7-0--0000---0-----9-9-----2-2-222p0|
                                         **    *                 **

Bridge:

|------------------------------------|
|------------------------------------|
|------7\6------7-6------7\6---------|
|-0-4--x-x-0-4--x-x-0-4--x-x-0-4--44-|
|-0-4--5\4-0-4--5\4-0-4--5\4-0-4--44-|
|-0-4------0-4------0-4------0-4--44-|

|--------------------------------------|
|--------10--------10--------10--------|
|---------x---------x---------x--------|
|-4-4h5p4-7-4-4-5-4-7-4-4-5-4-7-7-7-2-2|
|-4-4h5p4---4-4-5-4---4-4-5-4---7-7-2-2|
|-4-4h5p4---4-4h5p4---4-4h5p4---7-7-2-2|

|----------------------------------------|
|--------10--------10--------10----------|
|---------x---------x---------x----------|
|-4-4h5p4-7-4-4-5-4-7-4-4-5-4-7-9-9-222-0|
|-4-4h5p4---4-4-5-4---4-4-5-4---9-9-222-0|
|-4-4h5p4---4-4h5p4---4-4h5p4---9-9-222p0|


....this was my first tab..really... so i hope its not 2 bad..
yeah just listen to tha cd to get the right timing..
cause umm...dont count on mine
nyway i hope this has helped all u pepl out there
and if u have any coments\questions..feel free to email me 
at livo24@hotmail.com ...so farwel 4 now..God bless..

Enjoy:)

Comments about this tab

Timberwolf - 2004-07-08

Great Job!


adisciple - 2004-07-18

for being your first tab it was great


newsboysrule - 2004-11-06

Awesome job bro, it sounds great!


GodrulesWill777 - 2004-11-25

Great job on the tab. This song rocks. Jesus Rocks!!!!! God Bless!!!!!


demonslayer_jb - 2004-12-08

Nice Job. Great song. Thank You Much.


The ghost - 2005-03-15

Hey thanks for the great tab, it gave me something to build off of, keep it up!


eclipse_047 - 2005-05-26

thats really good but is the solor right???


110%panhead - 2005-07-29

this whole song is perfect! Thx man


ice_wiz - 2006-03-01

Good job on the tab keep it up!


Add a comment/correction

Complimentary Christian Ringtones
Dadamobile and CGR have teamed up to bring your favorite Christian artists right to your phone. Sign up today and get 10 complementary ringtones!
Tab Country
Did you know CGR has a sister site w/ country guitar tabs? Well we do! Its called Tab Country. It has a great archive with a lot of country tabs.
Rockin Tabs
Are you looking for a site that has rock guitar tabs? Then Rockintabs.com is the place for you. It is a budding site with many rock guitar tabs. Submit your tab today.
Tab Gallery
Tab Gallery has a compilation of christian, rock, and country tabs all in one place. Come visit us.