Guitar Tabs
song title    band name

Join Us Today!

Don't strum alone...
be a part of the largest online Christian music community. Browse thousands of guitar tabs and chat w/ musicians like yourself.


It's Free!

This tab has been rated a 3.33 out of 5 for accuracy. (3 votes)Sorry, but you must be logged in to rate this tab.
Click here to log-in, or you can click here to register.
(Registration is free)

All songs owned by corresponding publishing company. If you make copies of any song on this website, be sure to report your usage to CCLI.
Submitted by: jbworshipguy

Heaven Came Down

The song starts out like this...

CHORUS

   Em             C                D
-------------------------------------------------------------------------
----3----------------1--------------3------------------------------------
--------------------0-------------0--------------------------------------
----2-------------2------------4-----------------------------------------
----2-----------3--------3 / 5-------------------------------------------
-------------------------------------------------------------------------

Play this riff twice, after the first line of the chorus. Remember Crowder 
starts this song on the chorus 'Em' as shown above.

-------------------------------------------------------------------------...
-------------------------------------------------------------------------...
-----------------------------12--11--9--------9--------------------------...
------------7---9 / 12--9----------------12-------9---7---9--------------...
--7---10---------------------------------------------------------10----7-...
-------------------------------------------------------------------------...

...-----------------------------------------------------------------------3--
...-----------------------------------------------------------------------3--
...-----------------------12--11--9--7-h9---------------------------------0--
...------7---9 / 12--9-----------------------5^7----5-----------5--4------0--
...---10-----------------------------------5------5--------7--5------5----2--
...---------------------------------------------------7--5----------------3--



When leading up to Verse 1, play the chorus riff above then this next tab which 
takes you right to Verse 1's 'G'

								      
--------------------------------------------------------------------------
--------------------------------------------------------------------------
-----------------------------12--11--9--------9---------------------------
------------7---9 / 12--9----------------12-------9---7---9---------------
--7---10---------------------------------------------------------10----7--
--------------------------------------------------------------------------

Hope it's right...
It makes sounds right to me. Checkout www.davidcrowderband.com 
for the chords to the song.
Good luck
Jason

Comments about this tab

Curt Raymond S. - 2004-05-24

Well, when I decided to figure out the begining of this song, I thought I would check here first. But, after playing along with the song a few times, I found there are a few notes that need to be corrected. I am still figuring the rest out, but the begining rif goes something more like this:

-----------------------------------------------------------------------------
-----------------------------------------------------------------------------
----------------------12-xxx-11-xx-------------------------------------------
--------9-10-s12-------------------------------------------------------------
-7-h10------------10-----------------10-h12---7--10--------------------------
-----------------------------------------------------------------------------


Hopefully I will post an update or new submission with the rest soon.
-cUrt-


PraisingHim - 2004-06-17

perhaps a useful comment - somehow Crowder is making a much more full sound. He may have it tuned differently, but he's surely playing a few strings sometimes while going over the riff


jb worship guy - 2004-06-23

Yes absolutely, not only does Crowder fill in the music with open notes and such, there are 2 versions of this song. If you're playing along with the version from Illuminate, it won't make sense. This tab is modeled after the version on the Yellow and Lime CD's. I did the song for a special during our Easter production and totally made it my own adding riffs that were easier to play and extra accents
Jason


jesselav1108 - 2004-06-26

This isn't right either..but I'd just thought i give a little more "creativity" on this song.
G--------------------12-11--------------
D-------9-10/12---12-------12-----------
A--7-10---------9-------------12-10-9---
E---------------------------------------


Add a comment/correction

Complimentary Christian Ringtones
Dadamobile and CGR have teamed up to bring your favorite Christian artists right to your phone. Sign up today and get 10 complementary ringtones!
Tab Country
Did you know CGR has a sister site w/ country guitar tabs? Well we do! Its called Tab Country. It has a great archive with a lot of country tabs.
Rockin Tabs
Are you looking for a site that has rock guitar tabs? Then Rockintabs.com is the place for you. It is a budding site with many rock guitar tabs. Submit your tab today.
Tab Gallery
Tab Gallery has a compilation of christian, rock, and country tabs all in one place. Come visit us.