Guitar Tabs
song title    band name

Join Us Today!

Don't strum alone...
be a part of the largest online Christian music community. Browse thousands of guitar tabs and chat w/ musicians like yourself.


It's Free!

This tab has been rated a 3.50 out of 5 for accuracy. (2 votes)Sorry, but you must be logged in to rate this tab.
Click here to log-in, or you can click here to register.
(Registration is free)

All songs owned by corresponding publishing company. If you make copies of any song on this website, be sure to report your usage to CCLI.
Submitted by: John624

Relient K 
Trademark
(TUNING - EADGBE)


e----------------------------------
B----------------------------------
G----------------------------------
D--4-4---7-7-9-9---4-4---7-7-9-9---
A--4-4-------------4-4-------------
E--2-2-------------2-2-------------

e----------------------------------
B----------------------------------
G--7-7------------7-7--------------
D--7-7--7-7-9-9---7-7---7-7-9-6----
A--5-5------------5-5--------------
E----------------------------------

e--------------------------------------
B--------------------------------------
G--------------------------------------
D--4-4--11-11-12-12--4-4--11-11-12-12--
A--4-4---------------4-4---------------
E--2-2---------------2-2---------------

e--------------------------------------
B--------------------------------------
G--7-7--------------7------------------
D--7-7--11-11-9-9---7--11-11-12-9------
A--5-5--------------5------------------
E--------------------------------------


e----------------------------------
B----------------------------------
G----------------------------------
D--11-7-14-12-11---9-6-----7-4-----
A---(let ring)------(let ring)-----
E----------------------------------
        (REPEAT TWICE)

(solo)

e------------------------------------
B------------------------------------
G--7-6-------4-6-----6-4----4--2/---- X3
D-------9-7------6-4------2----------
A------------------------------------
E------------------------------------

(LAST TIME)
e------------------------------------
B------------------------------------
G--7-6-------4-6-----6-4----4--2----- X1
D-------9-7------6-4------2----------
A------------------------------------
E------------------------------------

Alternates:

(E A D G B e)
 2 4 4 x x x  = F#5

(E A D G B e)
 x 5 7 7 x x = D5


TABBED BY JOHN 624
(I KNOW MY TAB IS ALMOST PERFECT!)

Comments about this tab

GENERATIONSLTC - 2004-08-14

its played in drop d


guitarsticks22 - 2004-11-21

i love this song, thought it was pretty good . . . J O!!


sportsboi - 2005-11-12

um its supposed to be on different strings
e-------------- -----------------------
b-------2-2-4-4 ----2-2-1-1-----2-2-4-1
g-------------- -----------------------
d-3-4-4--------2x 0-0---------0-0--------
a-3-4-4-------- 0-0---------0-0--------
d-3-4-4-------- 0-0---------0-0--------

so much easier i think the solo is on the rite strings but i dont have my guitar here


sportsboi - 2005-11-12

oops sry about the high d string its supposed to be moved to the left one note


Twigguitar_1992 - 2006-04-22

cheese is good.


ccsguitars1 - 2006-06-14

this is aweful


joshtherocker - 2006-07-10

this is how it should go: h~hit on

e-----------------------------------------
b-----------------------------------------
g-----------------------------------------
d--44--77h99-44--77h99-00--7766--00--77h96
a--22--------22--------00--------00-------
E--22--------22--------00--------00-------


joshtherocker - 2006-07-10

oops o mean

e-------------------------------------
b-------------------------------------
g-------------------------------------
d44--77h99-44--77h99-00--7766-00-77h96
a44--------44--------00-------00------
E22--------22--------00-------00------


Add a comment/correction

Complimentary Christian Ringtones
Dadamobile and CGR have teamed up to bring your favorite Christian artists right to your phone. Sign up today and get 10 complementary ringtones!
Tab Country
Did you know CGR has a sister site w/ country guitar tabs? Well we do! Its called Tab Country. It has a great archive with a lot of country tabs.
Rockin Tabs
Are you looking for a site that has rock guitar tabs? Then Rockintabs.com is the place for you. It is a budding site with many rock guitar tabs. Submit your tab today.
Tab Gallery
Tab Gallery has a compilation of christian, rock, and country tabs all in one place. Come visit us.