Guitar Tabs
song title    band name

Join Us Today!

Don't strum alone...
be a part of the largest online Christian music community. Browse thousands of guitar tabs and chat w/ musicians like yourself.


It's Free!

This tab has been rated a 3.50 out of 5 for accuracy. (2 votes)Sorry, but you must be logged in to rate this tab.
Click here to log-in, or you can click here to register.
(Registration is free)

All songs owned by corresponding publishing company. If you make copies of any song on this website, be sure to report your usage to CCLI.
Submitted by: mattster88

#----------------------------------PLEASE NOTE--------------------------------#
#This file is the author's own work and represents their interpretation of the#
#song. You may only use this file for private study, scholarship, or research.#
#-----------------------------------------------------------------------------#


Date: 3/20/2004

------------------------------------------------------------------------------
          SONG: Clouded
BAND OR ARTIST: 38th Parallel
FROM THE ALBUM: Turn the Tides
TRANSCRIBED BY: Matt Sweet
------------------------------------------------------------------------------

Guitar Tuning: Dropped C (tune all one step down and drop low note from a D to a C (C G C F A D))

      h - hammer on 
      p - pull off 
      b - bend string up
      r - release bend
      / - slide up
      \ - slide down
      x - play 'note' with heavy damping
    

Intro
d------------------------------------------------------------------|
a------------------------------------------------------------------|
F------------------------------------------------------------------|
C--------6p5-------3--3----6p5------3--3----6p5--------------------|
G-------------6----3--3---------6---3--3---------6-----------------|
C------------------3--3-------------3--3---------------------------|




d------------------------------------------------------------------|
a------------------------------------------------------------------|
F------------------------------------------------------------------|
C--------6p5-------3--3----6p5------3--3----6p5--5--5--------------|
G-------------6----3--3---------6---3--3---------------------------|
C------------------3--3-------------3--3---------------------------|




d------------------------------------------------------------------|
a------------------------------------------------------------------|
F------------------------------------------------------------------|
C--------6p5-------3--3----6h5-------3--3----6p5-------------------|
G-------------6----3--3---------6----3--3---------6---4---6--------|
D------------------3--3--------------3--3--------------------------|

Verse
Keep repeating these notes

d-----12-----------------------------------------------------------|
a---------10--12---------------------------------------------------|
F------------------------------------------------------------------|
C------------------------------------------------------------------|
G------------------------------------------------------------------|
C------------------------------------------------------------------|


Chorus (do this twice for each repetition of the chorus)

d------------------------------------------------------------------|
a------------------------------------------------------------------|
F------------------------------------------------------------------|
C--------6p5------3--3----6p5------3--3----6p5---------------------|
G-------------6---3--3---------6---3--3---------6---4---6----------|
C-----------------3--3-------------3--3----------------------------|


d------------------------------------------------------------------|
a------------------------------------------------------------------|
F------------------------------------------------------------------|
C--------6p5------3--3----6p5------3--3----6p5---------------------|
G-------------6---3--3---------6---3--3---------6---4---3---6------|
C-----------------3--3-------------3--3----------------------------|

Comments about this tab

Michael4536 - 2005-12-27

a little corection at the verse
D-13---
A---13-
G------
C------
G------
C------


Michael4536 - 2005-12-27

its me again... you forgot the bridge. im not sure but i think its this
Bridge
F----------------------------------
A----------------------------------
D----------------------------------
C--3-3-3-3-3-3-3--0-0-0-0--2-2-2-2- repeat x3
G--3-3-3-3-3-3-3--0-0-0-0--2-2-2-2-
C--3-3-3-3-3-3-3--0-0-0-0--2-2-2-2-

then go to the verse

and then this is the outro

F------------------
A------------------
D------------------
C--6P5--3-3-6P5--3-
G-----6-3-3----6-3-
C-------3-3------3-

I think thats all god bless


Michael4536 - 2005-12-27

oops its me again palm mute the bridge
:p
God bless


Add a comment/correction

Complimentary Christian Ringtones
Dadamobile and CGR have teamed up to bring your favorite Christian artists right to your phone. Sign up today and get 10 complementary ringtones!
Tab Country
Did you know CGR has a sister site w/ country guitar tabs? Well we do! Its called Tab Country. It has a great archive with a lot of country tabs.
Rockin Tabs
Are you looking for a site that has rock guitar tabs? Then Rockintabs.com is the place for you. It is a budding site with many rock guitar tabs. Submit your tab today.
Tab Gallery
Tab Gallery has a compilation of christian, rock, and country tabs all in one place. Come visit us.