Guitar Tabs
song title    band name

Join Us Today!

Don't strum alone...
be a part of the largest online Christian music community. Browse thousands of guitar tabs and chat w/ musicians like yourself.


It's Free!

This tab has been rated a 4.57 out of 5 for accuracy. (7 votes)Sorry, but you must be logged in to rate this tab.
Click here to log-in, or you can click here to register.
(Registration is free)

All songs owned by corresponding publishing company. If you make copies of any song on this website, be sure to report your usage to CCLI.
Submitted by: scheller

You Already Take Me There
Switchfoot
Album LEARNING TO BREATHE
C 2000 re:think

Words and Music by Jon Foreman
Transcribed by scheller   

 Intro
  Gtr I dist  G5   Eb5          F5
|-----------|---------------|-----------------|
|-----------|---------------|-----------------|
|-----------|---------------|-----------------|
|-----------|------8-8--x-x-|-----------------|
|-----------|-5--5-6-6--x-x-|-x-3-3-3-3-3-3-3-|
|-----------|-3--3----------|-x-1-1-1-1-1-1-1-|
|
| Gtr II dist
|  *sim fdbk
|--15-------|---------------|-----------------|
|-----------|---------------|-----------------|
|-----------|---------------|-----------------|
|-----------|---------------|-----------------|
|-----------|---------------|-----------------|
|-----------|---------------|-----------------|

  G5   Eb5          C5
|---------------|-----------------------|
|---------------|-----------------------|
|---------------|-----------------------|
|------8-8--x-x-|-x-5-5----5---5--5--5\-|
|-5--5-6-6--x-x-|-x-3-3----3---3--3--3\-|
|-3--3----------|-----------------------|
|
|                       *fdbk 
|---------------|-------15---------------|
|---------------|-------18---------------|
|---------------|------------------------|
|---------------|------------------------|
|---------------|-------------------13\--|
|---------------|------------------------|


  Eb5               D5
|-----------------|----------------|
|-----------------|----------------|
|-----------------|----------------|
|-8-8-8-8-8-8-8-8-|-7-7-7-7-7-7-7--|
|-6-6-6-6-6-6-6-6-|-5-5-5-5-5-5-5--|
|-----------------|----------------|


 Verse 1
  Gtr III clean
    C5          D5              Em              G/B             C5  4x
||----------------|---------------|---------------|-----------------||
||o-1--1--1-1-1---|-3--3--3-3-3---|-5--5--5-5-5---|-3--3--3-3-3----o||
||--0--0--0-0-0-0-|-0--0--0-0-0-0-|-0--0--0-0-0-0-|-0--0--0-0-0-0---||
||----------------|---------------|---------------|-----------------||
||o-3--3--3-3-3-5-|-5--5--5-5-5-7-|-7--7--7-7-7-2-|-2--2--2-2-2-3--o||
||----------------|---------------|---------------|-----------------||


 Chorus
  $
  G5   Eb5          F5              G5   Eb5          C5
|---------------|-----------------|---------------|-----------------|
|---------------|-----------------|---------------|-----------------|
|---------------|-----------------|---------------|-----------------|
|------8-8--x-x-|-----------------|------8-8--x-x-|-x-5-5-5-5-5-5-5-|
|-5--5-6-6--x-x-|-x-3-3-3-3-3-3-3-|-5--5-6-6--x-x-|-x-3-3-3-3-3-3-3-|
|-3--3----------|-x-1-1-1-1-1-1-1-|-3--3----------|-----------------|

                                                             
  G5   Eb5         C5              Eb5               D5        To Coda
|--------------|-----------------|-----------------|-----------------|
|--------------|-----------------|-----------------|-----------------|
|--------------|-----------------|-----------------|-----------------|
|------8-8-x-x-|-x-5-5-5-5-5-5-5-|-8-8-8-8-8-8-8-8-|-7-7-7-7-7-7-7-7-|
|-5--5-6-6-x-x-|-x-3-3-3-3-3-3-3-|-6-6-6-6-6-6-6-6-|-5-5-5-5-5-5-5-5-|
|-3--3---------|-----------------|-----------------|-----------------|

  C5
|----------|--------|
|----------|--------|
|----------|--------|
|-5--------|-(5)----|
|-3--------|-(3)----|
|----------|--------|


 Verse 2 Gtr III plays verse riff 4x
 on the last bar Gtr I and II come in and play:
 Gtr I       D.S. al Coda
|----------------------||
|----------------------||
|----------------------||
|----------------------||
|------------x--x-9\---||
|------------x--x-7\---||
|
| Gtr II
|     *fdbk (actual note is one octave higher)
|----[10]--------------||
|----------------------||
|----------------------||
|----------------------||
|-----------------9\---||
|-----------------7\---||



 Bridge
   &
   Gtr IV clean w/effects                                              2x
|-----------------|-----------------|-----------------|-----------------|
|-----------------|-----------------|-----------------|-----------------|
|-7/9-9-9-9-9-9-9-|-9/7-7-7-7/9-7-7-|-4-4-4-4-4-4-4-4-|-4-4-4-4-4-4-4-4-|
|-----------------|-----------------|-----------------|-----------------|
|-----------------|-----------------|-----------------|-----------------|
|-----------------|-----------------|-----------------|-----------------|


|-----------------|-----------------|
|-----------------|-----------------|
|-7/9-9-9-9-9-9-9-|-9/7-7-7-7/9-7-7-|
|-----------------|-----------------|
|-----------------|-----------------|
|-----------------|-----------------|

  Gtr I
  G5   Eb5          F5              G5    Eb5   G5      Eb5   G5
|---------------|-----------------|-----------------|-----------------|
|---------------|-----------------|-----------------|-----------------|
|---------------|-----------------|-----------------|-----------------|
|------8-8--x-x-|-----------------|-------8-8-8-----|---8-8-8---------|
|-5--5-6-6--x-x-|-x-3-3-3-3-3-3-3-|-5-5-5-6-6-6-5-5-|-5-6-6-6-5-5-5-5-|
|-3--3----------|-x-1-1-1-1-1-1-1-|-3-3-3-------3-3-|-3-------3-3-3-3-|
|
| Gtr II
|---------------|-----------------|-----------------|-----------------|
|---------------|-----------------|-8-8-8-------8-8-|-8-------8-8-8-8-|
|---------------|-----------------|-7-7-7-------7-7-|-7-------7-7-7-7-|
|---------------|-----------------|-5-5-5-------5-5-|-5-------5-5-5-5-|
|---------------|-----------------|-----------------|-----------------|
|---------------|-----------------|-----------------|-----------------|

  Em
|-----------------|-----------------|
|-8-8-8-8-8-8-8-8-|-8-8-8-8-8-8-8-8-|
|-0-0-0-0-0-0-0-0-|-0-0-0-0-0-0-0-0-|
|-----------------|-----------------|
|-7-7-7-7-7-7-7-7-|-7-7-7-7-7-7-7-7-|
|-----------------|-----------------|
|
| Gtrs III, IV
|-----------------|-----------------|
|-----------------|-7b8-------------|
|-----------------|-----------------|
|-----------------|-----------------|
|-----------------|-----------------|
|-----------------|-----------------|

  C5
|-----------------|------------------|
|-----------------|------------------|
|-5-5-5-5-5-5-5-5-|--5-5-5-5-5-5-5-5-|
|-5-5-5-5-5-5-5-5-|--5-5-5-5-5-5-5-5-|
|-3-3-3-3-3-3-3-3-|--3-3-3-3-3-3-3-3-|
|-----------------|------------------|
|
|-----------------|------------------|
|-5---------------|------------------|
|-----------------|------------------|
|-----------------|------------------|
|-----------------|------------------|
|-----------------|------------------|


  Em
|-----------------|------------------|
|-8-8-8-8-8-8-8-8-|--8-8-8-8-8-8-8-8-|
|-0-0-0-0-0-0-0-0-|--0-0-0-0-0-0-0-0-|
|-----------------|------------------|
|-7-7-7-7-7-7-7-7-|--7-7-7-7-7-7-7-7-|
|-----------------|------------------|
|
|                   3/4 bend
|-----------------|------------------|
|-----------------|-10b11.5----------|
|-----------------|------------------|
|-----------------|------------------|
|-----------------|------------------|
|-----------------|------------------|


  C5
|------------------|-----------------|
|------------------|-----------------|
|--5-5-5-5-5-5-5-5-|-5-5-5-5-5-5-5-5-|
|--5-5-5-5-5-5-5-5-|-5-5-5-5-5-5-5-5-|
|--3-3-3-3-3-3-3-3-|-3-3-3-3-3-3-3-3-|
|------------------|-----------------|
|
|------------------|-----------------|
|------------------|-----------------|
|-12---------------|-----------------|
|------------------|-----------------|
|------------------|-----------------|
|------------------|-----------------|


  A5                            C5
|-----------|-----------------|-----------------|----------|
|-----------|-----------------|-----------------|----------|
|-----------|-----------------|-----------------|----------|
|-2-2-------|-2-2-2-2-2-2-2-2-|-5-5-5-5-5-5-5-5-|-5--------|
|-0-0-------|-0-0-0-0-0-0-0-0-|-3-3-3-3-3-3-3-3-|-3--------|
|-----------|-----------------|-----------------|----------|


 Out-Chorus
  G5   Eb5          F5              G5   Eb5          C5
|---------------|-----------------|---------------|-----------------|
|---------------|-----------------|---------------|-----------------|
|---------------|-----------------|---------------|-----------------|
|------8-8--x-x-|-----------------|------8-8--x-x-|-x-5-5-5-5-5-5-5-|
|-5--5-6-6--x-x-|-x-3-3-3-3-3-3-3-|-5--5-6-6--x-x-|-x-3-3-3-3-3-3-3-|
|-3--3----------|-x-1-1-1-1-1-1-1-|-3--3----------|-----------------|

  G5   Eb5          C5              Eb5               D5
|---------------|-----------------|-----------------|----------------|
|---------------|-----------------|-----------------|----------------|
|---------------|-----------------|-----------------|----------------|
|------8-8--x-x-|-x-5-5-5-5-5-5-5-|-8-8-8-8-8-8-8-8-|-7-7-7-7-7--x-x-|
|-5--5-6-6--x-x-|-x-3-3-3-3-3-3-3-|-6-6-6-6-6-6-6-6-|-5-5-5-5-5--x-x-|
|-3--3----------|-----------------|-----------------|----------------|

  Eb5               D5
|-----------------|----------------|
|-----------------|----------------|
|-----------------|----------------|
|-8-8-8-8-8-8-8-8-|-7-7-7-7-7--x-x-|
|-6-6-6-6-6-6-6-6-|-5-5-5-5-5--x-x-|
|-----------------|----------------|

  Gtr I
  Eb5               D5                G5
|-----------------|-----------------|-------------*|
|-----------------|-----------------|-------------*|
|-----------------|-----------------|-------------*|
|-8-8-8-8-8-8-8-8-|-7-7-7-7-7-7-7-7-|-------------*|
|-6-6-6-6-6-6-6-6-|-5-5-5-5-5-5-5-5-|---5\--------*|
|-----------------|-----------------|---3\--------*|
|
| Gtr II
|-----------------|-----------------|-------------*|
|-----------------|-----------------|-------------*|
|-----------------|-----------------|-------------*|
|-8-8-8-8-8-8-8-8-|-7-7-7-7-7-7-7-7-|-------------*|
|-6-6-6-6-6-6-6-6-|-5-5-5-5-5-5-5-5-|-/10\--------*|
|-----------------|-----------------|-------------*|



Generated using Power Tab Editor by Brad Larsen - http://power-tab.net

Comments about this tab

carsonh76 - 2004-11-06

correct


surge88 - 2004-11-27

looks good to the naked eye!
this guys good at makin' tabs.
Keep up the good work.


Timberwolf - 2005-03-01

Hey I got the x2003 songbook this is in it. PM me with your email adress if you want me to send it to ya.


skid - 2005-04-10

it's all good


guitarplayer67 - 2005-06-18

it is good except you left out the part at the begining where the singing starts
and if you dont know what i am talking about then listen to the song from 11 seconds into the song all the way to 35 seconds into the song


Steffenlaursen - 2005-06-19

Dude, that's what we'll usually call a verse ;)


guitarplayer67 - 2005-06-25

k. i am stupid wen it comes to naming parts of songs.(i dont even no wat a bridge is):B


Add a comment/correction

Complimentary Christian Ringtones
Dadamobile and CGR have teamed up to bring your favorite Christian artists right to your phone. Sign up today and get 10 complementary ringtones!
Tab Country
Did you know CGR has a sister site w/ country guitar tabs? Well we do! Its called Tab Country. It has a great archive with a lot of country tabs.
Rockin Tabs
Are you looking for a site that has rock guitar tabs? Then Rockintabs.com is the place for you. It is a budding site with many rock guitar tabs. Submit your tab today.
Tab Gallery
Tab Gallery has a compilation of christian, rock, and country tabs all in one place. Come visit us.