Guitar Tabs
song title    band name

Join Us Today!

Don't strum alone...
be a part of the largest online Christian music community. Browse thousands of guitar tabs and chat w/ musicians like yourself.


It's Free!

This tab has been rated a 4.60 out of 5 for accuracy. (5 votes)Sorry, but you must be logged in to rate this tab.
Click here to log-in, or you can click here to register.
(Registration is free)

All songs owned by corresponding publishing company. If you make copies of any song on this website, be sure to report your usage to CCLI.
Submitted by: AdamS316

Breaking My Fall: by Jeremy Camp
Album: Stay (BEC Recordings 2002)
Words and music: Jeremy Camp
Tabs: by Adam, Admamp@aol.com

The other tab I saw was written with a capo, and the interlude after
the first chorus was left out, so here is the the tab without a capo and
I indcluded the interlude.



Intro:
 In the intro the parenthesis around the (12) means use string harmonics.
If you have heard the song you know what I mean. If you don't know how then
e-mail me and I will send you an e-mail explaining how
E---------------(12)----------------------------------
B---10----------------(12)------9-------------9-------
G-------9--------------------------------11-----------
D---------11--------------------11--------------------
A---12------------------------------12----------------
E-----------------------------------------------------


E-----------------------------------------------------
B--9-----------9-------------10-----------9-----------
G-----------------------------------------------------
D-----11-------11--------11----------11---------------
A--------12---------12-----------12-------------------
E-----------------------------------------------------

Interlude:
 The interlude comes after the first chours and isn't quite like the intro.

E-----------------------------------------------------
B---10----------10---------9-----------------9--------
G-------9-------------------------------11------------
D----------11-------11----------11--------------------
A---12-----------------12-----------12----------------
E-----------------------------------------------------

E-----------------------------------------------------
B---9-----------10--------------------9---10----------
G----------------------------9---11-------------------
D------11------------11-------------------------------
A----------12------------12---------------------------
E-----------------------------------------------------
Play this 2 times then continue with the first tab(intro).

Verses:
A, Bsus4, G#sus4, Asus4

Chorus: 
Asus4, Bsus4, A, F#m, Bsus4
A, F#m, G#sus4, Asus4, Bsus4

Bridge: 
Bsus4, F#m, Bsus4, Asus4

Comments about this tab

HB20 - 2005-12-09

Can you write those chords our for the verse and chorus. I am fairly new at guitar and those chords pretty much scare me! lol of what I can play it sounds great! Be Blessed!
Psalm 37:4


AdamS316 - 2006-01-11

Here ya go. Sorry it took so long to respond, I haven't checked this tab in while. This should be all the chords you need, The are off the top of my head(visualizing the guitar while at work) but they should be right.

I wrote them out as tabs.

A
--5------
--5------
--6------
--7------
--7------
--5------

Asus4
--5------
--5------
--7------
--7------
--5------
--5------

Bsus4
--7------
--7------
--9------
--9------
--7------
--7------

F#m
--2------
--2------
--2------
--4------
--4------
--2------

G#sus4
--4------
--4------
--6------
--6------
--4------
--4------



-Adam


Add a comment/correction

Complimentary Christian Ringtones
Dadamobile and CGR have teamed up to bring your favorite Christian artists right to your phone. Sign up today and get 10 complementary ringtones!
Tab Country
Did you know CGR has a sister site w/ country guitar tabs? Well we do! Its called Tab Country. It has a great archive with a lot of country tabs.
Rockin Tabs
Are you looking for a site that has rock guitar tabs? Then Rockintabs.com is the place for you. It is a budding site with many rock guitar tabs. Submit your tab today.
Tab Gallery
Tab Gallery has a compilation of christian, rock, and country tabs all in one place. Come visit us.