Guitar Tabs
song title    band name

Join Us Today!

Don't strum alone...
be a part of the largest online Christian music community. Browse thousands of guitar tabs and chat w/ musicians like yourself.


It's Free!

This tab has been rated a 5.00 out of 5 for accuracy. (1 vote)Sorry, but you must be logged in to rate this tab.
Click here to log-in, or you can click here to register.
(Registration is free)

All songs owned by corresponding publishing company. If you make copies of any song on this website, be sure to report your usage to CCLI.
Submitted by: guitarist_06

Band: Juliana Theory
Song: Piano Song
Album: Unknown
Songwriter: Brett Detar

Greetings! 
   
Play C and F chords thoughout the song...
I would tab out the other little lead riffs but I think most everyone 
can do that themselves.  This is a really easy song.  

C F etc.

Solo (sorry aout the timing)
E:---------------------------------------------------------------------
B:-----------------------------------------8---------------------------
G:----------------7b-7-5b-7-5-----5-7-9-10---9-7-----------------------
D:-5-3-2-3-2-3v---------------5-7--------------------------------------
A:-----------------------------------------------8v-8-8h10h12s14-------
E:---------------------------------------------------------------------

E:---------------------------------------------------------------------
B:---------------------------------------------------------------------
G:-----------------------17-16-14-12-9--17-16-14-12-9-10p9p7-5-5h7h9---
D:-10v-10h12h14-15-17-17-----------------------------------------------
A:---------------------------------------------------------------------
E:---------------------------------------------------------------------

E:------------------------------17b-15h17p15-13-12-12h13p12------------
B:--------------15b-15b-13b-13b-----------------------------13-12------
G:-10-12-14-12---------------------------------------------------------
D:---------------------------------------------------------------------
A:---------------------------------------------------------------------
E:---------------------------------------------------------------------

E:---------------------------------------------------------------------
B:-12h13p12------------------------------------------------------------
G:----------14-12------------------------------------------------------
D:---------------------------------------------------------------------
A:---------------------------------------------------------------------
E:---------------------------------------------------------------------

Chords:
 C   F
-0---1-
-1---1-
-0---2-
-2---3-
-3---0-
-x---x-

An awesome song by an awesome band.

Peace

Comments about this tab

outy2k - 2005-02-25

Yo. This tab was good, except it doesn't have the chords for the chorus part, the part that goes "I believe in you, your time is coming..."

So here they be:

Am G F
I believe in you, your time is coming,
Am G F
Don't give up tonight...

And so on and so forth.

Rock on.

outy2k


Add a comment/correction

Complimentary Christian Ringtones
Dadamobile and CGR have teamed up to bring your favorite Christian artists right to your phone. Sign up today and get 10 complementary ringtones!
Tab Country
Did you know CGR has a sister site w/ country guitar tabs? Well we do! Its called Tab Country. It has a great archive with a lot of country tabs.
Rockin Tabs
Are you looking for a site that has rock guitar tabs? Then Rockintabs.com is the place for you. It is a budding site with many rock guitar tabs. Submit your tab today.
Tab Gallery
Tab Gallery has a compilation of christian, rock, and country tabs all in one place. Come visit us.