Guitar Tabs
song title    band name

Join Us Today!

Don't strum alone...
be a part of the largest online Christian music community. Browse thousands of guitar tabs and chat w/ musicians like yourself.


It's Free!

This tab has been rated a 3.33 out of 5 for accuracy. (3 votes)Sorry, but you must be logged in to rate this tab.
Click here to log-in, or you can click here to register.
(Registration is free)

All songs owned by corresponding publishing company. If you make copies of any song on this website, be sure to report your usage to CCLI.
Submitted by: WellFire

Artist: The Swift
Song: Wake up
Transcribed by: Kenneth A. Mercer / WellFire

If you make copies of this song, be sure to report your usage to CCLI
.

I tabbed this solo quickly. So if you find any mistakes
you may stone me.
I groupped it in 3 groups of phrases to make it a little
easier to learn.


--------------------------------------5-5---5---7-7---
------------------------------------------------------
---------9h11p9--6h7p6--6h7p6--------6-6---6---7-7----
-7/9-7-------------------------9-7\-------------------
-------9----------------------------------------------
------------------------------------------------------


------------------------------17h18p17----------------
-/10-9-7----------------------------------------------
----------21h23p21--18h19p18------------18h19p18------
------------------------------------------------------
------------------------------------------------------
------------------------------------------------------


------------------------------------------------------
-/19-19-19-19---14-14-14~~~~~~~~~---------------------
-/21^21^21^21^--16-16-16-16h17p16-16h17p16------------
------------------------------------------------------
------------------------------------------------------
------------------------------------------------------

All in all, a very easy solo. Enjoy!

Comments about this tab

supaduk - 2005-08-28

Way off buddy, try it like this:

e-00-0-0-00000000-00000000-77777777-11(fast 8x)-12(fast 8x)-------------------|
B-55-7-9-55555555-88888888-55555555-10(fast 8x)-10(fast 8x)-------------------|
G-----------------99999999----------------------------------------------------|
D-----------------------------------------------------------------------------|
A-----------------------------------------------------------------------------|
E-----------------------------------------------------------------------------|
Then it goes to the last chorus.

This 100% correct because I played it with the song


WellFire - 2006-05-25

Nice Try.:{


Add a comment/correction

Complimentary Christian Ringtones
Dadamobile and CGR have teamed up to bring your favorite Christian artists right to your phone. Sign up today and get 10 complementary ringtones!
Tab Country
Did you know CGR has a sister site w/ country guitar tabs? Well we do! Its called Tab Country. It has a great archive with a lot of country tabs.
Rockin Tabs
Are you looking for a site that has rock guitar tabs? Then Rockintabs.com is the place for you. It is a budding site with many rock guitar tabs. Submit your tab today.
Tab Gallery
Tab Gallery has a compilation of christian, rock, and country tabs all in one place. Come visit us.