Guitar Tabs
song title    band name

Join Us Today!

Don't strum alone...
be a part of the largest online Christian music community. Browse thousands of guitar tabs and chat w/ musicians like yourself.


It's Free!

This tab has been rated a 4.75 out of 5 for accuracy. (4 votes)Sorry, but you must be logged in to rate this tab.
Click here to log-in, or you can click here to register.
(Registration is free)

All songs owned by corresponding publishing company. If you make copies of any song on this website, be sure to report your usage to CCLI.
Submitted by: B-rad

Song: This Fragile Breath
Artist: Todd Agnew
Words and Music by: Todd Agnew

This is an awesome song and this is the correct version of this song that includes all the 
lead guitar parts including the little "didly" during the chorus that everyone want to learn
how to play. So here it is....
Intro:
        D                         A/C#                    Bm        F#m G
E----------------------------------3-2-0-2-----------------------------
B----3----h5----/7------2---------------------------------------------
G-----------------------------------------------4---4-------------------
D-----------------------------------------------------------4---5-------
A-------------------------------------------------------------------------

Verse:
Bm7   Em    D     F#    G#
Palm mute E     G

Chorus:
D    A/C#    Bm       F#m   G
after the G the guitar tab is 
E------3----2----2h3p2---0--2------------------------------
B-----------------------------------------------------------------
G-----------------------------------------------------------------
D-----------------------------------------------------------------
A-----------------------------------------------------------------

Bridge:
F#m    G        F#m       Ghammer on to A
D        D/C#

Guitar tab that comes back into chorus is:
E-----------------------------------------------------------------
B-----------------------------------------------------------------
G----------------------------4---5---4----5--------------------
D-------------------5--4-----------------------------------------
A---10b/2--3---------------------------------------------------
 
That's it but there are 3 guitars and the 3rd guitar plays the intro during the chorus at the end.

Comments about this tab

B-rad - 2004-05-21

Sorry, but the BRIDGE part I have the guitar part starting on the A string and It should be on the E string. Just move it all up one string on the bridge only.


u.r.y_theband - 2005-01-29

e--2h3-2-0---------
b----------3-2h3---
g------------------
d------------------
a------------------
e------------------

i think the turn around lick in the chorus goes like this


guitarczar - 2005-02-08

You could play the chorus riff like this (one of the positions). The notes are accurate and it avoids the use of open strings (which is up to personal preference). Insert the respective hammer ons and pulls off when you feel you need to.

b--7--8--7--5-----5------------------------
g--------------7-----7---------------------

Here's the riff with open strings (easier to play, harder to control with distortion, but not that hard)
e--2--3--2--0------------
b--------------3--5(0)--3


oaxacan_rocker - 2005-08-14

after listening to the song while looking at this, i think u.r.y has the right idea with that lick


JCforme - 2006-08-17

that g# in the verses is supposed to be a regular g


madewell - 2006-09-12

I AM REALLY SORRY TO SAY THIS BUT, ALL OF YOU ARE WRONG, WRONG, WRONG.
TUNE DOWN TO D.
D,D/E/F/C#(OVER)D,E/F/E/D/B#,F#,G
IM AT WORK RIGHT NOW SO I DONT HAVE MY GUITAR WITH ME, BUT JUST PLAY AROUND WITH IT, TODD USES ALOT OF POWER CORDS.


Add a comment/correction

Complimentary Christian Ringtones
Dadamobile and CGR have teamed up to bring your favorite Christian artists right to your phone. Sign up today and get 10 complementary ringtones!
Tab Country
Did you know CGR has a sister site w/ country guitar tabs? Well we do! Its called Tab Country. It has a great archive with a lot of country tabs.
Rockin Tabs
Are you looking for a site that has rock guitar tabs? Then Rockintabs.com is the place for you. It is a budding site with many rock guitar tabs. Submit your tab today.
Tab Gallery
Tab Gallery has a compilation of christian, rock, and country tabs all in one place. Come visit us.