Guitar Tabs
song title    band name

Join Us Today!

Don't strum alone...
be a part of the largest online Christian music community. Browse thousands of guitar tabs and chat w/ musicians like yourself.


It's Free!

This tab has been rated a 3.25 out of 5 for accuracy. (4 votes)Sorry, but you must be logged in to rate this tab.
Click here to log-in, or you can click here to register.
(Registration is free)

All songs owned by corresponding publishing company. If you make copies of any song on this website, be sure to report your usage to CCLI.
Submitted by: josh-rock

Artist ~ Kutless
Song ~ All Alone
Album ~ Sea of Faces
2004 bec recordings
Tuning ~ Drop D ( d a d g b e )


Intro Piano part arranged for Guitar the best I could come up with ;)
High e|-----13--13-------------9--11--9----------13--13------------9--9-----
     b|-11-----------------------------------11-----------------7-----------
     g|---------------------------------------------------------------------

The intro is done I think with piano until about the middle of the first verse.
But you can just play like you do the rest of the verse

Verse Guitar 1: 
d|-8------------------11------------------6---------------4----------
a|-8------------------11------------------6---------------4---------- repeat
d|-8------------------11------------------6---------------4----------

Verse Guitar 2: 
d|--------------------6--6---4---3------------4----3----------------
a|--------------------4--4---4---4------------------------4---------repeat
d|------------------------------------------------------------------

Chorus:
d|-8-8------4-4-----1-1--x--1-1--------8-8-------4-4------1-1--x--1-1---
a|-8-8------4-4-----1-1--x--1-1--------8-8-------4-4------1-1--x--1-1---
d|-8-8------4-4-----1-1--x--1-1--------8-8-------4-4------1-1--x--1-1---


Bridge:

d|-8---------4----------1------------8---------4----------1------
a|-8---------4----------1------------8---------4----------1------ cont.
d|-8---------4----------1------------8---------4----------1------


d|-8---------4--------8----------4---------1-1-1h4-----1-1-1h4----4-x-x-
a|-8---------4--------8----------4---------1-1-1h4-----1-1-1h4----4-x-x- 
d|-8---------4--------8----------4---------1-1-1h4-----1-1-1h4----4-x-x-

back to Chorus

listen to the CD for the rhythm and timing.. 
I stink at writing out complete rhythm tabs…
and this is just my second tab…… so give me a break.. 
lol  any questions my e-mail is 
muskie_84@hotmail.com    Rock On!  JOSH
 Lyrics ~ http://www.kutless.com/album_sofaces.asp   - josh-rock

Comments about this tab

one_truth10 - 2004-05-10

hey, i just thought i'd help you out on the intro. im not 100% on this because i'm doing this from memory, but this should be close:

e------13-----11-9-8----13-----9--11--------------------------
B-11--------11-------9------7---------------------------------
G-------------------------------------------------------------
D-------------------------------------------------------------
A-------------------------------------------------------------
D-------------------------------------------------------------


danny_meier - 2004-05-28

Kutless plays in drop d


josh-rock - 2004-06-02

hmmm really? Drop D? and what did I put as the Tunning? actually Kutless plays most of their First CD in drop D and Most of "sea of Faces" in drop C# for those who are wondering.... and then They also capo up on some songs.


akdriver - 2004-12-03

The updated intro was great, I played it against the cd and it sounded perfect. and as for not being able to tab out rhythm very well, this song doesn't need the rhythm tabbed out because it's so easy to figure out. Good job on your second tab btw.

Akdriver
Jer. 29:11


ryan_grooms22 - 2005-05-25

you did an awesome job
with an awesome song
this song like (Run)
feels like gods talking to you in the song
god bless
-ryan_grooms22


hitinhard13 - 2006-02-23

awesome job on the intro


Add a comment/correction

Complimentary Christian Ringtones
Dadamobile and CGR have teamed up to bring your favorite Christian artists right to your phone. Sign up today and get 10 complementary ringtones!
Tab Country
Did you know CGR has a sister site w/ country guitar tabs? Well we do! Its called Tab Country. It has a great archive with a lot of country tabs.
Rockin Tabs
Are you looking for a site that has rock guitar tabs? Then Rockintabs.com is the place for you. It is a budding site with many rock guitar tabs. Submit your tab today.
Tab Gallery
Tab Gallery has a compilation of christian, rock, and country tabs all in one place. Come visit us.